Around The World, Red Hot Chili Peppers (acordes)

Autor: mariojens | 48929 visualizaciones

abcmefmgm


 Riff 1: 
 
  |---------------------------------------|--------------------------------------------------- 
  |---------------------------------------|--------------------------------------------------- 
  |---------------------------------------|--------------------------------------------------- 
  |---0----3--5--3--5---0----3--5--3--5---|---0----3-5-3-5-3-5-----0----3--5--3--5------------ 
  |---------------------------------------|--------------------------------------------------- 
  |---------------------------------------|--------------------------------------------------- 
 
 
Riff 1 
 
All around the world 
We could make time 
Rompin' and a stompin' 
'Cause I'm in my prime 
Born in the north 
And sworm to entertain ya 
'Cause I'm down for 
The state of Pensylvania 
I try not to whine 
But I must warn ya 
'Bout mother fucker girls 
From California 
Alabama baby 
Said hallelujah 
Good God girl 
I wish I knew ya 
 
Refrão: 
 
Ab        Gm 
 I know I know for sure 
Fm         
 That life is beautiful 
 Cm   
Around the world 
Ab         Gm 
 I know I know It's you 
Fm 
 You say hello and 
       Cm    
then I say I do 
 
Riff 1 
 
Come back baby 
'Cause I'd like to say 
I've been around the world 
Back from Bombay 
Fox hole love 
Pie in you face 
Living and out 
Of a big fat suticase 
Bonafide ride 
Step aside my Johnson 
Yes I could 
In the woods of Winsconsin 
Wake up the cake 
It's a lake she's kissin' me 
As they do when 
When they do in Sicily 
 
Refrão 
 
Solo: [E] 
 
Riff 1 
 
Where you want to go 
Who you want to be 
What you want to do 
Just come with me 
I saw God 
And I saw the fountains 
You and me girl 
Sittin' in the Swiss mountains 
Me Oh My O 
Me and Guy O 
Freer than a bird 
'Cause we're rockin' Ohio 
Around the world 
I fell dutiful 
Take a wife 
'Cause life is beautiful 
 
 
Ab         Gm 
 I know I know for sure 
Fm                           Cm  
 Den-den-don-don-den-den-don-don-den-deng 
Ab         Gm 
 I know I know It's you 
Ab                           Cm 
 Den-den-don-don-den-den-don-don-den-deng 
 
 
Ab  
 Mother Russia do not a suffer 
Gm 
I know you're bold enougth 
     Fm 
I've been around the world 
            Cm 
And I have seen your love 
Ab         Gm 
 I know I know It's you 
Fm                   Cm 
 You say hello then I say I do 
 
 
Final:  4x 
 
|1-1-1-1-1-1-1-1-1-1----3-3-3-3-3-3-3-3-3-3----4-4-4-4-4-4-4-4-4-4----6-6-6-6-6-6-6-6----------- 
|3-3-3-3-3-3-3-3-3-3----5-5-5-5-5-5-5-5-5-5----6-6-6-6-6-6-6-6-6-6----8-8-8-8-8-8-8-8----------- 
|2-2-2-2-2-2-2-2-2-2----4-4-4-4-4-4-4-4-4-4----5-5-5-5-5-5-5-5-5-5----7-7-7-7-7-7-7-7----------- 
|----------------------------------------------------------------------------------------------- 
|----------------------------------------------------------------------------------------------- 
|-----------------------------------------------------------------------------------------------  





Calificar esta versión:
Aviso: Este fichero es trabajo propio de su transcriptor y representa su interpretación personal de la canción. El material contenido en esta página es para exclusivo uso privado, por lo que se prohibe su reproducción o retransmisión, así como su uso para fines comerciales.
Más versiones de Around The World, Red Hot Chili Peppers
Around The World
acordes
Around The World
tablatura
Around The World
bajo
Descubre más canciones de Red Hot Chili Peppers