Medicina De Amor, Raulin Rodríguez (tablatura)

Autor: thenew0213 | 33908 visualizaciones



TITULO:           MEDICINA DE AMOR
GRUPO O ARTISTA:  RAULIN RODRIGUEZ(REPÚBLICA DOMINICANA)
COMPOSITOR;       RAULIN RODRIGUEZ (REPÚBLICA DOMINICANA)
TRANSCRITO POR:   VÍCTOR IVÁN G.
FECHA:            MIERCOLES,15 DE JULIO 2009
PROCEDENCIA:      CHIMALHUACÁN EDO.DE MÉX. MÉXICO

FÓRMULA DE COMPÁS; 4/4
BPM;150
NOTA; CASI TODAS SON CORCHEAS A EXCEPCIÓN DE LA PRIMERA
NOTA DE CADA COMPÁS DE LA INTRODUCCIÓN QUE ES NEGRA

INTRODUCCIÓN;(EL ARPEGIO SE REPITE DOS VECES)

E----------13-13h14-13----|---------14-14h16-14----|
B-------14-------------14-|------14-------------14-|
G----13-------------------|---15-------------------|
D-15----------------------|-16---------------------|
A-------------------------|------------------------|
E-------------------------|------------------------|

---------16-16h18-16----|
------16-------------16-|
---17-------------------|x2
-18---------------------|
------------------------|
------------------------|

e|--13-9-11-13pl-14pl-16-11---------------------13x2-11x2--11x2-9-8-9|
B|--------------------------11-13-14x4-11-9---9-----------9----------|x2
G|-------------------------------------------------------------------|

RECUERDEN QUE pl LO UTILIZO EN LAS NOTAS EN LAS QUE DEBEN HACER UN
PLUMILLEO ARRIBA ABAJO Y VICEVERSA SOBRE ESA NOTA (ESCUCHEN LA CANCIÓN)

DESPUÉS DE TOCAR EL REQUINTO VUELVES A TOCAR EL ARPEGIO

E----|----|----|
B-14-|-14-|-16-|
G-13-|-15-|-17-|ESTOS ACORDES SON LOS DE LA VERSIÓN ORIGINAL.
D-15-|-16-|-18-|
A----|----|----|
E----|----|----|

ASI SE ARPEGEAN LOS ACORDES QUE MECIONÉ ANTERIORMENTE;

E--------------------------|
B--------14-------14----14-|
G-----13-------13----------|x2
D--15-------15------15-----|
A--------------------------|
E--------------------------|

--------------------------|
--------16-------16----16-|
-----17-------17----------|x2
--18-------18------18-----|
--------------------------|
--------------------------|

-----------14~~~|
--------14------|
-----15---------|
--16------------|
----------------|
----------------|

--------------------------|
--------14-------14----14-|
-----13-------13----------|x2
--15-------15------15-----|
--------------------------|
--------------------------|

--------------------------|
--------16-------16----16-|
-----17-------17----------|x2
--18-------18------18-----|
--------------------------|
--------------------------|


--------------------------|
--------14-------14----14-|
-----13-------13----------|x2
--15-------15-------15----|
--------------------------|
--------------------------|

------------------------|
--------14--14h16-14----|
-----13--------------13-|  REPETIR(ESCUCHEN LA CANCIÓN)
--15--------------------|
------------------------|
------------------------|

Letra
Coro
Medicina de amor
Quiero de ti
Porque tú eras la mujer
Que me puede curar mi cáncer de amor

Que tan mal me porte
Mi corazón que me tiene tanto rencor
Y me ve muriendo
Por culpa de tu amor

Coro

Otro año pasó
Muriendo voy
No lo olvides mi corazón
¿Quien me puede curar dándome tu amor?

Si me deja morir mi corazón
No lo olvides mi corazón
que te cuidaré y te guiaré
Donde vayas mi amor te guiaré
Porque no guardo rencor en mi corazón, en mi corazón

Tu recuerdo de amor me llevaré
Y con el me consolaré
Y quizás mi amor feliz seré

Coro

[ Esta canción va dedicada
Especialmente para una mujer
Una mujer que ha acabado con mi alma, con mi vida
A esa yo la llamo
mujer cobarde y traicionera
Que no sabe valorar la vida del hombre
Y quiere terminar de esa manera ]

AGRADECIMIENTOS A JUAN QUIEN ME MANDO EL ARPEGIO CORRECTO GRACIAS
(AUNQUE EN TENIA DETALLES YA CORREGIDOS PA' QUE QUEDE 100% CORRECTA).

SALUDOS A ANA. A.V.G.B. TE AMO MI VIDA Y VOY A LUCHAR POR TU AMOR
ESPERO ALGÚN DÍA SIENTAS UN POKITO DE AMOR COMO EL QUE SIENTO YO
POR TI ESPERARÉ PACIENTE EL DÍA PORQUE YO SIEMPRE TE AMARÉ.


OTRAS COLABORACIONES;
SÓLO UN DÍA        - BANDA MS (TAB)
VOY A CONQUISTARTE - DIEGO VERDAGUER (TAB)
VIVIR SIN AIRE     - MANÁ(TEC)
NO LLORES          - TRÁGICO BALLET (TAB)
Y ME FUI           - TRÁGICO BALLET (ACORD)
LA MAÑANITAS       - CANCIONES POPULARES (TAB)
SUGERENCIAS, AGRADECIMIENTOS, PAGOS (ACEPTO CHICLES MASTICADOS, TARJETAS DE
CRÉDITO Y DEBITO) MENTADAS,AMENAZAS DE MUERTE CORRECCIONES Y DEMÁS A MI
I-MEIL LISTO.(A CALIFIQUEN PORFA)





Calificar esta versión:
Aviso: Este fichero es trabajo propio de su transcriptor y representa su interpretación personal de la canción. El material contenido en esta página es para exclusivo uso privado, por lo que se prohibe su reproducción o retransmisión, así como su uso para fines comerciales.
Más versiones de Medicina De Amor, Raulin Rodríguez
Medicina De Amor
acordes
Medicina De Amor
tablatura
Descubre más canciones de Raulin Rodríguez