Mi Media Sandia, Raul Ornelas (tablatura)

Autor: Anónimo | 28558 visualizaciones



mucha gente me ha pedido esta tab y aki se los mando esta muy
sencillo y lo mejor es q esta muy bn, ahi estan los acordes
y se la dedico a mi novia

                              "LULU"

ella me motiva a sacar estas grandes canciones, cualquier duda
ahi esta mi correo y cheken el tutorial que puse en youtube
para complementar este tab


MI media sandia
Raul órnelas

INTRO: arpegio
   G                    Am
e-3---3----3----3-------5---5----5----5-----------
B-3--3----3----3----3---5--5----5----5----5-------
G-4-4----4----4----4----5-5----5----5----5--------
D-5-----5----5----5-----7-----7----7----7---------
A-5---------------------7-------------------------
E-3---------------------5-------------------------

  Bm                    C             D
e-7---7----7----7-------8---8---------10----------
B-7--7----7----7----7---8--8-----8----10----------
G-7-7----7----7----7----9-9-----9-----11----------
D-9-----9----9----9----10-----10------12----------
A-9--------------------10-------------------------
E-7---------------------8-------------------------

Punteo

      G                        Am
e------------------------------------------------------
B------------------------------------------------------
G---------------------4--------------------------------
D-5-5-----5-5-----5-7---7-5--7-7-----7-7-----7-9-10-9-7
A-----5-5-----5-5----------------7-7-----7-7-----------
E------------------------------------------------------

    Bm                                C               D
e---------------------------------------------------------
B---------------------------------------------------------
G---------------------------------------------------------
D-9-9-----9-9-----9-10-12-10-9--10-10-------10-10-------12
A-----9-9-----9-9---------------------10-10-------10-10---
E---------------------------------------------------------

 G
Tengo un costalito bien llenito de sueños
 Am
y la gigantesca fe que tiene un pequeño
   C          D      Bm        Em
tengo una confianza llena de esperanzas
    C                     D
y también los pies en el suelo
  G
tengo una alcancía bien llenita de besos
  Am
y una buena colección de amigos eternos
   C       D        Bm        Em
tengo la fortuna de tocar la luna
   C                    D
cuando vuelo sobre tu cuerpo

   Em                 Am
eres mi equilibrio, mis ganas de amor
    C                D
mi cuento de nunca acabar

coro:

       G                                   Am
mi paracaídas, mi tablita salvavidas en alta mar
     C                                         D
mi cerveza fría, mi remedio pa ahuyentar a la soledad
       G                                      Am
mi siguiente dia, mi pequeña luciérnaga en la oscuridad
       C                                        D
mi filosofía, mi refugio contra el miedo y la tempestad
         Em          Am                  C        D       G
mi razón de vida, mi media sandia, mis guerras eternas de paz



puente:  G  Am  Bm  C  D

      G                        Am
e------------------------------------------------------
B------------------------------------------------------
G---------------------4--------------------------------
D-5-5-----5-5-----5-7---7-5--7-7-----7-7-----7-9-10-9-7
A-----5-5-----5-5----------------7-7-----7-7-----------
E------------------------------------------------------


    Bm                                C               D
e---------------------------------------------------------
B---------------------------------------------------------
G---------------------------------------------------------
D-9-9-----9-9-----9-10-12-10-9--10-10-------10-10-------12
A-----9-9-----9-9---------------------10-10-------10-10---
E---------------------------------------------------------
  G
tengo un boletito gratis al cielo
  Am
para visitar a todos los que se fueron
  C                  D   Bm         Em
para estar un buen rato con la que me trajo
    C               D
y decirle cuanto la quiero

coro:

  Em                 Am
eres mi equilibrio, mis ganas de amor
    C                D
mi cuento de nunca acabar

coro:

       G                                   Am
mi paracaídas, mi tablita salvavidas en alta mar
     C                                         D
mi cerveza fría, mi remedio pa ahuyentar a la soledad
       G                                      Am
mi siguiente dia, mi pequeña luciérnaga en la oscuridad
       C                                        D
mi filosofía, mi refugio contra el miedo y la tempestad
         Em          Am                  C                 B
mi razón de vida, mi media sandia, mis guerras eternas de paz

puente:  E   C#m  B  E  C#m  B  C   D  G  Am  Bm C
           D
mi media sandia…………





Calificar esta versión:
Aviso: Este fichero es trabajo propio de su transcriptor y representa su interpretación personal de la canción. El material contenido en esta página es para exclusivo uso privado, por lo que se prohibe su reproducción o retransmisión, así como su uso para fines comerciales.
Más versiones de Mi Media Sandia, Raul Ornelas
Mi Media Sandia
acordes
Mi Media Sandia (ver 2)
acordes
Mi Media Sandia (ver 3)
acordes
Mi Media Sandia
tablatura
Descubre más canciones de Raul Ornelas