Adiós Pueblo De Ayacucho, Raúl García Zárate (tablatura)

Autor: Anónimo | 26901 visualizaciones



Introduccion Corregida

Bueno, aqui les traigo la intro de ADIOS PUBLO DE AYACUCHO del maestro
RAUL GARCIA ZARATE. Bueno, o al menos lo que pude hacer o transcribirla,
si esta mal, publiquenlo o manden la correcion a mi mail pes... Pues
para toda la gente de la UNI, FIC q le gusta la guitarra:
Pollo, Loko JHON, Dashiel, Eden, Recontra Noe, Maestro Jose, y para ti
tambien CHARAPIN no te sulfures, que se te sale lo Munaylla, si no te
nombro de ahi te pones a llorar...

Para ti, YATUSA, siento q el mundo se vuleve mas AFIRMATIVO cuando te
miro...

Afinacion: Afinar la sexta cuerda en FA, lo demas afinacion STANDARD...

Intro:

|--------|-------|--------|--------|
|-----10-|----6--|-----10-|----8p6-|
|----9---|-----7-|----9---|------7-|
|--------|-0-----|--------|-0------|
|-0------|-------|-0------|--------|
|--------|-------|--------|--------|

|-5---5-0-3/5---3p1-----|-5---5-0-3/5---3p1-----|-5---5-0-3/5---3p1---|
|---6---------------3/6-|---6---------------3/6-|---6---------------3-|
|-----------------------|-----------------------|---------------------|
|-------------0---------|-------------0---------|-------------0-------|
|-------0---------------|-------0---------------|-------0-------------|
|-0---------------------|-0---------------------|-0-------------------|

|-1/3-5-------3p1---|-1/3-5--------|-1-----------------|
|-3/5-6---2-3-----3-|-3/5-6---2--3-|--------------2--3-|
|-------------------|--------------|---2-------2-------|
|-----------0-------|------------0-|-----3/5-5-------0-|
|-------0-----------|-------0------|-----------0-------|
|-0-----------------|-0------------|-----0-------------|

|-----0-1-3p1p0-3--1p0-5-0-3-3p1p0-3--1p0-------0h1p0-------|
|-2-3-------------------------------------3-2-3--------2--3-|
|-----------------------------------------------------------|
|------------------0------------------0-------------------0-|
|---------------0------------------0-------------------0----|
|-----------------------------------------------------------|

|-1-----------------|-----------------|
|--------------2--3-|-------3---2---3-|
|---2-----0h2-------|-2---2---2---2---|
|-----3/5---------0-|---3-----------0-|
|---------0---------|-----------0-----|
|-----0-------------|-----------------|

Lo que sigue no se como se llama, pero es como el trino, pero
con dos dedos, por eso no se como escribirlo, asi q lo pongo
como trino pero con dos, y con la misma t de trino porq no se
como se dice con solo dos dedos:

|---------------------|---------------------------|
|---------------------|-------------------3-------|
|--2tt--2tt--2tt--2tt-|--2tt--2tt-0h3h2-2------2--|
|----------------0----|-------------------0-------|
|-----------0---------|-----------0------------0--|
|-0----2--------------|-0----2--------------------|

|----------------------------|
|------------------------3---|
|----------------0h3h2-2-----|
|------------------------0---|
|-------0--------0-----------|
|--2---------2---------------|





Calificar esta versión:
Aviso: Este fichero es trabajo propio de su transcriptor y representa su interpretación personal de la canción. El material contenido en esta página es para exclusivo uso privado, por lo que se prohibe su reproducción o retransmisión, así como su uso para fines comerciales.
Más versiones de Adiós Pueblo De Ayacucho, Raúl García Zárate
Adiós Pueblo De Ayacucho
tablatura
Adiós Pueblo De Ayacucho (ver 2)
tablatura
Descubre más canciones de Raúl García Zárate