Piano, Raul Di Blasio (tablatura)

Autor: crissguitar | 33162 visualizaciones

Hola aqui les traigo una melodia Instrumental nombrada piano de
Raul Di Blasio.

Primera parte:

     Em            Am-D            G            C 
1)--0-3-2-0 x2 1)--0-3-2-0 x4 1)----2-0- x2 1)---0--- x2
2)-0-------    2)-1-------    2)-0-3---3    2)--1-3-1
3)---------    3)---------    3)--------    3)-0-----
4)---------    4)---------    4)--------    4)-------
5)---------    5)---------    5)--------    5)-------
6)---------    6)---------    6)--------    6)-------

    Am             B7             Em       B7
1)---1--- x2   1)------- x2   1)---------3-5-2-3
2)--0-3-1      2)---1-0-      2)----------------
3)-2-----      3)--2---2      3)-0-2--0---------
4)-------      4)-1-----      4)----4-----------
5)-------      5)-------      5)----------------
6)-------      6)-------      6)----------------

Segunda Parte:

Los tonos que acompañan esta melodia son Am-D-G-C-Am-D-G-E

1)--7-----7-8-7-5-5---5-5-----5-7-5------------------
2)-5-5-5'5-------8-7-8-------------8-7-8-5-7-8-8-----
3)-----------------------7-7'7------------------5-5'5
4)---------------------------------------------------
5)---------------------------------------------------
6)---------------------------------------------------
                            x2
1)--5------------||-----------||-------
2)-8-8-7-5-7-----||8-7-7-8-7-7||-------
3)----------7-5-4||-----6-----||8-6-5-4
4)---------------||-----------||-------
5)---------------||-----------||-------
6)---------------||-----------||-------

O.K Hay tienen escuchen la cancion para que le encuentren la forma mas rapida.

Bueno la primera parte se repite 2 veses, Luego la segunda por igual, Despues la primera 1  ves, mas luego la segunda 1 ves, y para el final la primera una ves y hay acaba.......


Quiero decirles que la primera parte se toca dandole un golpe hacia abajo, luego cuando se repite es de tiempo completo el rasgueo.

Thank For See!
Calificar esta versión:
Aviso: Este fichero es trabajo propio de su transcriptor y representa su interpretación personal de la canción. El material contenido en esta página es para exclusivo uso privado, por lo que se prohibe su reproducción o retransmisión, así como su uso para fines comerciales.