Como Yo Te Amo, Raphael (tablatura)

Autor: Anónimo | 16675 visualizaciones

EN ESTA MAGNIFICA LLEVA CAPO EN EL SEGUNTO TRASTE PARA QYE PUEDAN TOCAR MEJOR 
EL PUNTEO Y SI NO PUES ESTA ARMONIZADA EN B SOLO QUE SIN CAPO TENDRIAN QUE 
PONER MUCHA CEJILLA

DESDE LUEGO ESTA ROLA VA DEDICADA CON TODO 
MI CORAZON A ANA LAURA CHOLULA LA AMO TAL COMO DICE LA CANCION

INTRO                                              
         A                          E  A
E|--------0----------|-------0----------------0-----------------0----------
B|--0---2----0---2---|-0---2----0---2---0---2----0---2----0---2----0---2---
G|-----------------2-|-----------------------------------------------------
D|----2--------2-----|---2--------2-------2--------2--------2--------2-----  
A|-------------------|------------------0--------0--------0--------0-------
E|-------------------|----------------0-----------------0-----------------0

        A                             F#m
E|--------0----------|-------0----------------2---------2------------------
B|--0---2----0---2---|-0---2----0---2---2---2-----2---2--------------------
G|-------------------|-----------------------------------------------------
D|----2--------2-----|---2--------2-------4---------4----------------------
A|--0--------0-------|-0--------0------------------------------------------
E|-----------------0-|----------------0-2---------2------------------------
                       Como yo te amo              Como yo te - - -

    C#m                   D                   Bm
E|-------4--------4--|---------2--------2----------2---------2-------------
B|-5---5----5---5----|---3---3----3---3------3---3-----3---3---------------
G|-------------------|-----2--------2--------------------------------------
D|---6--------6------|---0--------0------------4---------4-----------------
A|-4--------4--------|-----------------------2---------2-------------------
E|-------------------|-----------------------------------------------------
    amo              convéncete           convéncete

   E                 A
E|-------0-----------------0----------------0--------|
B|-0---2----0---2----0---2----0--2----0---2----0--2--|
G|--------------------------------------------------2|
D|---2--------2---2----2--------2-------2--------2---|
A|-------------------0--------0-------0--------0-----|
E|-0--------0----------------------0-----------------|
           Nadie    te amara


           A   F#m      
Como yo te amo                         
         C#m    D         Bm       E
Como yo te amo  olvídate  olvídate
         A     C#7      F#m
Nadie te amará nadie te amara
E
Nadie porque yo . . .
A
Yo te amo con la fuerza de los mares
F#m
Yo te amo con el ímpetu del viento 
Bm
Yo te amo en la distancia y en el tiempo 
E
Yo te amo con mi alma y con mi carne
A
Yo te amo como al niño en las mañanas 

F#m
Yo te amo como al hombre a su recuerdo
Bm
Yo te amo a puro grito y en silencio 
E
Yo te amo de una forma sobre humana 
A
Yo te amo en la alegría y en el llanto

F#m
Yo te amo en el peligro y en la calma 
Bm
Yo te amo cuando gritas cuando callas 
E
Yo te amo tanto yo te amo tanto yo      

(PEQUEÑO SOLO ACOMPAÑADO POR A F#m Bm E)

    A                   F#m
E|-------------------------------------------------------|
B|--2-0-2-0-2-0-2-0---0-2-3-2--0-2-0-2-0-2-0---0-2-3-0---|
G|------------------2------------------------2-----------|
    Bm                 E
E|------------------------------------------|
B|----------------------2-------------------|
G|--2-4-2-4-2-4-2-1-2-4---4---2-4-2-4-2-4---|

            A   F#m            
como yo te amo
           C#m       D         Bm      E
Como yo te amo  convéncete convéncete 
         A
Nadie te amara
               A
Que como yo te amo
           C#m    D        Bm     E
Como yo te amo olvídate olvídate 
      A        C#7      F#m
Nadie te amará nadie te amara 
 E           A
nadie porque yo . . .


SI TIENEN DUDAS Y/O COMENTARIOS  POR FAVOR ESCRIBAN A 
alfa_omega22@hotmail.com GRACIAS.
Calificar esta versión:
Aviso: Este fichero es trabajo propio de su transcriptor y representa su interpretación personal de la canción. El material contenido en esta página es para exclusivo uso privado, por lo que se prohibe su reproducción o retransmisión, así como su uso para fines comerciales.
Más versiones de Como Yo Te Amo, Raphael
Como Yo Te Amo
acordes
Como Yo Te Amo
tablatura
Descubre más canciones de Raphael