Let Down, Radiohead (tablatura)

Autor: jon bon rocky | 41406 visualizaciones

Hola negros, les paso let down de radiohead, que temazo.

el tema esta en LA mayor por si les viene curiosidad
los acordes de la intro y los versos son A - E - F#m - E
en el estribillo son D - Dsus2 - A - D/F# y al final mete un E
en el solo es todo el tiempo Asus4

IMPORTANTE: La guitarra 2 lleva cejilla en el 7º traste

Todo fue transcripto por mi. Ls tablatura es correcta porque ya la he todado en vivo esta cancion.
Les puedo asegurar que esta perfecta, de hecho, tengo la GP5 Tab y concuerda con esta.






INTRO: Guitarra 1

e|---------5---------0---------4---------0------------
B|---3---3-----3---3-----3---3-----3---3--------------
G|-6---6-----6---6-----6---6-----6---6----------------
D|----------------------------------------------------
A|----------------------------------------------------
E|----------------------------------------------------x3 y 1/2

como pueden ver, esta tocado en 5/8, pero el tema esta en 4/4
esto genera poliritmia.

después aparece otra guitarra que toca:
e|-0-----------------------0-0--------------0---------0----------
B|-5---5-5---5---5-5---5---5-5---5---5-5----5-5---5---5-----5----
G|---------6---6-----6---6-----6---6------6-----6---6---6-6---6--
D|---------------------------------------------------------------
A|---------------------------------------------------------------
E|---------------------------------------------------------------

como ven, vuelve a aparecer polirritmia. 
esa última tablatura se repite 2 veces con el cambio de que al final se tocan algunos F# en la primera cuerda





VERSOS: Guitarra 1: toca la primera tablatura, tal cual la intro
La otra guitarra toca los acordes A - E - F#m - E en corcheas





ESTRIBILLO: Guitarra 1

   D     Dsus2      A       D/F#
e|------0-------0-------0-----------5-----4-----0--------
B|----0-----0-----0---0---3---3---3---3-----3-----3------
G|-11-----9---7-----9-------6---6-------6-----6----------
D|-------------------------------------------------------
A|-------------------------------------------------------
E|-------------------------------------------------------x2

   D     Dsus2      A       D/F#    E
e|------0-------0-------0-----0-------0-----------------
B|----0-----0-----0---0---------------------------------
G|-11-----9---7-----9-----7-6---4-6-4---4-2-1-----------
D|--------------------------------------------2---------
A|----------------------------------------------2-------
E|------------------------------------------------------






SOLO: Guitarra 2 (base en Asus4)

e|------------------------------------------------------------
B|----------3------3-----3-----------------3-----3-------7----
G|-2--4--6-----6-----6-----6---2---4---6-----6-----6---6---6--
D|---------------0-----0-----0---0---0---0-----0-----0--------
A|------------------------------------------------------------
E|------------------------------------------------------------

e|-----------------------------5---------------------------------
B|---------------3-----3--------0--------------3-----3-------7---
G|---2---4---6-----6-----6---6------2---4---6----6-----6---6---6-
D|-0---0---0---0-----0-----0------0---0---0---0----0-----0-------
A|---------------------------------------------------------------
E|---------------------------------------------------------------

esas 2 tablaturas se tocan 2 veces



Guitarra 1 (a continuación):

e|----------------------------5-4-0--4-0----5-4---0--4----
B|--3-3-3-3-3-3-3-3-3-3-3-3-3-------------3-----3--3--3---
G|-6-6-6-6-6-6-6-6-6-6-6-6-6-6-----------6-6---6-6--6-----
D|--------------------------------------------------------
A|--------------------------------------------------------
E|--------------------------------------------------------

e|------------------------5-4-0-4-0---5--4--0--4--0--------
B|--3-3-3-3-3-3-3-3-3-3-3-----------3---3--3--3--3-3-3-----
G|-6-6-6-6-6-6-6-6-6-6-6-6---------6-6-6--6--6--6---6-6----
D|---------------------------------------------------------
A|---------------------------------------------------------
E|---------------------------------------------------------

(base en Asus4)


Guitarra 2 (para finalizar el solo):

e|---------------------------------------------------------------
B|-8---8-7---5---5-----------3----3------------------------------
G|---7-----7---7----2--4--6----6----6--6--6--2--4--2--2--0-----2-
D|---------------------------------------------------------2-4---
A|---------------------------------------------------------------
E|---------------------------------------------------------------

e|-------------------------------
B|-------------3-----------------
G|-4--2--4--6-----4--6--6--6-----
D|-------------------------------
A|-------------------------------
E|-------------------------------

(base en Asus4)





VERSOS Y CORO FINAL: son iguales a los versos y coros pasados





FINAL: Guitarra 1

   Asus4            A
e|-----------------------------------
B|-----3-------3-------3-2-----2-----
G|-----------------------------------
D|---2-------2-------2-------2-------
A|-0-----0-0-----0-0-------0-----0---
E|-----------------------------------x4

y finaliza en A

Comentarios del colaborador: recomiendo bajar la GPTAb del tema para entenderlo mejor

Calificar esta versión:
Aviso: Este fichero es trabajo propio de su transcriptor y representa su interpretación personal de la canción. El material contenido en esta página es para exclusivo uso privado, por lo que se prohibe su reproducción o retransmisión, así como su uso para fines comerciales.
Más versiones de Let Down, Radiohead
Let Down
acordes
Let Down
tablatura
Descubre más canciones de Radiohead