Angel, Radio Viejo (tablatura)

Autor: antraxr | 24014 visualizaciones



Intro: G Cadd9

  G           Cadd9 
|-3---3---3---3---3---3--------------|
|--3---3---3---3---3---3-------------|
|---0---0---0---0---0---0------------|
|-------------------------------p----|
|-------------3------------3-2-3-2---|
|-3--------------------------------3-|


G	        Cadd9  		
Recuerdo aquel día que te conocí. 
G              Cadd9                E|-3-2-0-
Fue como un impacto cuando yo te vi. 
Em	  Bm       C	D 
  Mi corazón palpitaba fuertemente 
Em	   Bm         C           D 	
  No pude resistir a tu mirada de ángel. 

Nunca había sentido algo así 
Cuando me miraste yo me enamore de ti 

|-----------------------------------|
|-----------------------------------|
|--h--------------------------------|
|-7-9-7------------------7----7-9-7-|
|-------10-9-7-9-10-9-10---10-------|
|-----------------------------------|

Y en mi canción trato de recordarte 
Porque no he vuelto yo a saber de ti 

Coro: (con distorción)
   G           B5
Angel donde estás 
       C5      D5
En el cielo supongo 
   G         B5  
Angel ven a mi 
            C5                   D5  
Que este es un infierno si no estás aquí
 G    Cadd9
AAngeeel

|---------------------------------------|
|---------------------------------------|
|--p------------------------------------|
|-9-7---------9-9-7-------sl-----sl-----|
|-----10-9-10-------10-9-9-10-9-7-5---5-|
|-----------------------------------7---|

En todo mis sueños apareces siempre tú
No quisiera despertar pues ahí soy feliz 
A mis amigos les he habladoo de mi ángel 
Y ellos dicen que, eres solo una ilusión.

Coro:...

   G        B5
Angel volverás
         C5      D5  
que yo quiero tenerte
   G      B5  
Angel, aquí 
     C5	        D5 
como la primera vez
        G  Cadd9  G
que te ví

G  Cadd9            G
Ángel, uh, uh ,uu, uh

       E A D G B E
G      3 2 0 0 3 3
Cadd9  X 3 2 0 3 3
Bm     X 2 4 3 3 2   	
B5     X 2 4 4 X X
C5     X 3 5 5 X X
D5     X 5 7 7 X X





Calificar esta versión:
Aviso: Este fichero es trabajo propio de su transcriptor y representa su interpretación personal de la canción. El material contenido en esta página es para exclusivo uso privado, por lo que se prohibe su reproducción o retransmisión, así como su uso para fines comerciales.
Más versiones de Angel, Radio Viejo
Angel
acordes
Angel
tablatura
Descubre más canciones de Radio Viejo