Clausura, Quirquiña (tablatura)

Autor: Anónimo | 32874 visualizaciones

24/03/06

Rock Boliviano con Altura...
Es idéntico al original


     B           F#           G#m         E
E   |-|0|-|-|-   |-|0|-|-|-   |-|0|-|-|-   |-|-|-|-
G   |-|0|-|0|-   |-|0|-|-|-   |-|0|-|-|-   |-|-|-|-
B   |-|0|-|0|-   |-|0|0|-|-   |-|0|-|-|-   |0|-|-|-
D   |-|0|-|0|-   |-|0|-|0|-   |-|0|-|0|-   |-|0|-|-
A   |-|0|-|-|-   |-|0|-|0|-   |-|0|-|0|-   |-|0|-|-
E   |-|0|-|-|-   |-|0|-|-|-   |-|0|-|-|-   |-|-|-|-
   /            /                4        /


Intro:
              E       B               E       B
e---2--7--9---12---11-11---14--12--10p12---11-11---
G--------------------------------------------------
B--------------------------------------------------
A--------------------------------------------------
E--------------------------------------------------

              E       B       F#
e---14--12-10p12---11-11---9--2--4--6--
G--------------------------------------
B--------------------------------------
A--------------------------------------
E--------------------------------------

              E       B               E       B
e---2--7--9---12---11-11---14--12--10p12---11-11---
G--------------------------------------------------
B--------------------------------------------------
A--------------------------------------------------
E--------------------------------------------------

              E       B       F#
e---14--12-10p12---11-11---9--7-----6--
G--------------------------------------
B--------------------------------------
A--------------------------------------
E--------------------------------------


B                F#
No, no me pidas perdón
          G#m             E
ya es muy tarde para que vuelvas
     G#m         E
a llenarme de promesas
         G#m        E           F#
promesas vanas, que nunca cumplirás


Coro:
           E  B                E         B
Por qué no puedes ver que no estoy como ayer
   F#           E      F#                 E
llorando tu condena, tomando hasta que amanezca
           E      B            E       B
Por qué no puedes ver que esto se terminó
        F#               E
cuantas veces me has dejado
        F#               E    B
cuantas veces me he quedado solo...


Punteo:
...B                       F#            B                       F#
e--0-----------0----------------------|--0-----------0--------------------
B-----4--2--0-----4--2--0--2---4p5-4--|-----4--2--0-----4--2--0--2---0-0--
G-------------------------------------|-----------------------------------
D-------------------------------------|-----------------------------------
A-------------------------------------|-----------------------------------
E-------------------------------------|-----------------------------------

   B                       F#            B                       F#
e--0-----------0----------------------|--0-----------0--------------------
B-----4--2--0-----4--2--0--2---4p5-4--|-----4--2--0-----4--2--0--2--------
G-------------------------------------|-----------------------------------
D-------------------------------------|-----------------------------------
A-------------------------------------|-----------------------------------
E-------------------------------------|-----------------------------------


B                F#
No, no me pidas perdón

B E B F#
...
B E B F#
...

      G#m              E
puede ser que me arrepienta,
         G#m           E
pero no aguanto más tormentas
          G#m           E
quiero sentarme en la cama,
       F#
sin pensar en tus palabras


(Coro)


(Punteo)


(Coro)


Espero que les haya sido útil,
cualquier duda o sugerencia escribir a cchp_ok@hotmail.com
Este tema va dedicado a la Promo 2001 del Colegio San Agustín
Calificar esta versión:
Aviso: Este fichero es trabajo propio de su transcriptor y representa su interpretación personal de la canción. El material contenido en esta página es para exclusivo uso privado, por lo que se prohibe su reproducción o retransmisión, así como su uso para fines comerciales.
Más versiones de Clausura, Quirquiña
Clausura
acordes
Clausura
tablatura
Descubre más canciones de Quirquiña