Te Recuerdo Amanda, Quilapayun (tablatura)

Autor: Anónimo | 41387 visualizaciones

Esta versión suena bastante bien si se interpreta tal  como esta escrito
acá (aunque el arpegio es bastante sencillo). Suerte y disfruten
este tremendo tema.


Intro (se repite dos veces)

          SOL7+*          LA*         SOL6          LA*

E||--7---7---7---7-----|--0---0--------0---0-------0---0----|
B||----7-------7---7h5-|--------5h3----------3h5---------5--|
G||-0------0-----------|----6------------4-----------6------|
D||--------------------|-7-----------5-----------7----------|
A||--------------------|------------------------------------|
E||--------------------|------------------------------------|

 Parte A:
           RE 
|--2---2---2----2---2---2--------|
|--------3------------3----------|
|----2------------2--------------|
|-0-----------0------------------|
|--------------------------------|
|--------------------------------|
  Te recuerdo Amanda

        FA#m.
|------2---2---2-----2----2---2-------|
|------------2--------------2---------|
|--------2--------------2-------------|
|--0-4------------4-------------------|
|-------------------------------------|
|-------------------------------------|
la calle mojada

             SOL
 |----3---3--3----3----3----3-----------|
|----------0-------------0-------------|
|------0------------0------------------|
|--------------------------------------|
|-0-2-----------2----------------------|
|--------------------------------------|
corriendo a la fabrica





          DO                                     RE 6
|---0---0---0----0----0----0-----2---2----2-----2---2---2|
|---------1-------------1--------------3--------------3--|
|-----0------------0---------------4--------------4------|
|------------------------------0--------------0----------|
|-3------------3-----------------------------------------|
|--------------------------------------------------------|
donde trabajaba Manuel


Parte A:

LA sonrisa ancha
La lluvia en el pelo
No importaba nada
Ibas a encontrarte con él
Con el, con el , con él

Parte B :  (el arpegio es el mismo, sólo cambian las notas)

  SIm
Con el
  LA 
Son cinco minutos
   LA7
La vida es eterna
   SOL 7 +
en cinco  minutos
     LA7   SOL7    (esta parte se rasguea)
Suena la sirena
LA7   SOL7    (esta parte se rasguea)
De vuelta al trabajo
FA#m
Y tu caminando
  SOL 
Lo iluminas todo
    SOL7 
Los cinco minutos
   MI 
Te hacen florecer.

Parte A: Te recuerdo, Amanda......
Parte A: La sonrisa ancha.....



Parte B:

Con él
Que partió a la sierra
Que nunca hizo daño
Que partío a la sierra
Y en cinco minutos
Quedó destrozado
Suena la sirena
De vuelta al trabajo
Muchos no volvieron
Tampoco manuel

Parte A:

Te recuerdo Amanda
LA calle mojada
Corriedo a la fabrica
Donde trabajaba Manuel

(se repite la introduccion)

acordes:

La7+  (5x665x)
La*     ( xx7605)
Sol 6   (xx5430)
Sol7+  (3x443x)
Sol7+*(xxx077)

Cualquier duda escriban a quijalliv@yaho.es
Calificar esta versión:
Aviso: Este fichero es trabajo propio de su transcriptor y representa su interpretación personal de la canción. El material contenido en esta página es para exclusivo uso privado, por lo que se prohibe su reproducción o retransmisión, así como su uso para fines comerciales.
Más versiones de Te Recuerdo Amanda, Quilapayun
Te Recuerdo Amanda
acordes
Te Recuerdo Amanda
tablatura
Descubre más canciones de Quilapayun