Retrato De Sandino Con Sobrero, Quilapayun (tablatura)

Autor: Anónimo | 34154 visualizaciones

Introducción:


    Dm     C      Bb        F         Bb    C
D#----5------5---------8-6--5--------------------------
A#--6---6--5---5--3-----------8-6-5-----6---5-8--------
F#----------------------------------5-7---7-----5------
C#--0-----------------------3--------------------------
G#---------3------1---------------0---------3----------
D#------------------------------------6----------------

    F         Bb    C      F          C      F      Gm
D#--5-----------------8-6--5------------8------8-------
A#----8-6-5---------5--------8-6-5----5---5--6---6--8--
F#----------5-7---7----------------7-------------------
C#--3-----------8----------3----------5----------------
G#--------0---------3----------------------------------
D#------------6------------------------------5------6--

                  C    A7     Dm
D#-10--8--6--5-----------------------------------------
A#-------------8--6--5-----5--6------------------------
F#-----------------------7----7*-----------------------
C#----------------------------0------------------------
G#-----------------------0-----------------------------
D#----------------8------------------------------------

*: Corresponde a la primera sílaba de la canción.


Dm               C         F
Cuentan que, taciturno y oscuro,
       G          F
como tallado en madera,
        Gm         A7
como fundido en volcán,
Dm          C         F
era Sandino y que, de lejos,
        G         F             Gm         A7
a veces se confundía con la quietud del breñal.

F                 Bb            C*
Cuentan que se educó en la intemperie
            A7          Dm
y que a las bestias del monte
                    A7
copió su forma de andar:
Dm                C       F
ahí fue que ejercitó la mirada,
          G      F             A7        Dm
la calma, la ligereza, la agilidad del jaguar.

Dm     F   G     Gm F       G               A7
Allá va el general, rayo de luz sobre el trigal.
Dm     F   G     Gm F          A7              Dm
Allá va el general, como una estrella sobre el mar.

Dm            C       F
Hosco como la greda reseca,
         G         F
como una piedra oxidada,
       Gm         A7
huraño como el carbón:
Dm            C          F
así creció Sandino en la lluvia,
             G           F               Gm      A7
templando en la tierra antigua sus dedos de labrador.

F                 Bb             C*
Supo que aquellas tierras, que hería
            A7       Dm
con sus dos manos hermosas
                  A7
y aladas de sembrador,
Dm           C       F
eran un territorio cerrado:
         G        F            A7         Dm
la jaula donde dormía gorriona con su gorrión.

Dm     F   G     Gm F       G               A7
Allá va el general, rayo de luz sobre el trigal.
Dm     F   G     Gm F           A7             Dm
Allá va el general, como una estrella sobre el mar.


Interludio : Introducción.

(Ídem.)
Viendo que el monte no se movía,
partió Sandino hacia el monte
una mañana de Abril.
Desde las minas de San Albino,
su azada de hierro dulce se convirtió en un fusil.

(Ídem.)
Cuentan que fueron tantos, entonces,
los que se alzaron del miedo
al ver pasar su perfil.
Así Sandino entró a la memoria
de América la morena, quiero decir, mi país.

Dm     F   G     Gm F       G               A7
Allá va el general, rayo de luz sobre el trigal.
Dm     F   G     Gm F          A7              Dm  F
Alla va el general, como una estrella sobre el mar,
G          A7              Dm F G          A7              Dm
como una estrella sobre el mar, como una estrella sobre el mar.


    D#A#F#C#G#D#
C*: 3 5 5 0 0 0
Calificar esta versión:
Aviso: Este fichero es trabajo propio de su transcriptor y representa su interpretación personal de la canción. El material contenido en esta página es para exclusivo uso privado, por lo que se prohibe su reproducción o retransmisión, así como su uso para fines comerciales.
Más versiones de Retrato De Sandino Con Sobrero, Quilapayun
Retrato De Sandino Con Sobrero
acordes
Retrato De Sandino Con Sobrero
tablatura
Descubre más canciones de Quilapayun