Bohemian Rhapsody, Queen (tablatura) (ver 4)

Autor: kaulg | 35455 visualizaciones



"BOHEMIAN RHAPSODY-QUEEN"


Ola pues esta es la primer transcripcion q subo espero les sea util,es del solo de "bohemian rhapsody" de queen un solo 
para mi con mucho sentimiento al tocar o como se le conoce "feeling" bueno comenten q tal les parecio...

SOLO.

E |--------------------------------------------------------|
B |---------------11v-8?11b13--13--15-16-13-15-16-16b18----|
G |----10b12r10-8------------------------------------------|
D |--8-----------------------------------------------------|
A |--------------------------------------------------------|
E |--------------------------------------------------------|

E |-----13-15-16-18-18b20---18-16-15-16-15h16p15----15-----|
B |--13------------------------------------------18----18--|
G |--------------------------------------------------------|
D |--------------------------------------------------------|
A |--------------------------------------------------------|
E |--------------------------------------------------------|

E |--------------------------------------------------------|
B |--16-15-16-15h16p15-----15------------------15-17-18----|
G |---------------------17----17-15v-----15-17-------------|
D |--------------------------------------------------------|
A |--------------------------------------------------------|
E |--------------------------------------------------------|

E |----15-17-18-------------------15-17-18-18b20-----------|
B |---------------------15-17-18---------------------------|
G |--------------15-17-------------------------------------|
D |--------------------------------------------------------|
A |--------------------------------------------------------|
E |--------------------------------------------------------|

E |---------------------------------------------13v--------|
B |--15-16-13--15-16-13--15-16-16b18-----------------------|
G |------------------------------------10-12-13-----13v----|
D |--------------------------------------------------------|
A |--------------------------------------------------------|
E |--------------------------------------------------------|

E |--------------------------------------------------------|
B |--------------------------------------------------------|
G |--12-13-13-13-13-13-13-13-13/4-4h5p4--------------------|
D |-------------------------------------5v-----------------|
A |--------------------------------------------------------|
E |--------------------------------------------------------|



b=bend
h=hammer on
p=pull off
v=vibracion
/=slide





Calificar esta versión:
Aviso: Este fichero es trabajo propio de su transcriptor y representa su interpretación personal de la canción. El material contenido en esta página es para exclusivo uso privado, por lo que se prohibe su reproducción o retransmisión, así como su uso para fines comerciales.
Más versiones de Bohemian Rhapsody, Queen
Bohemian Rhapsody
acordes
Bohemian Rhapsody
tablatura
Bohemian Rhapsody (ver 2)
tablatura
Bohemian Rhapsody (ver 3)
tablatura
Bohemian Rhapsody (ver 4)
tablatura
Bohemian Rhapsody (ver 5)
tablatura
Bohemian Rhapsody (ver 6)
tablatura
Bohemian Rhapsody
video guitarra
Bohemian Rhapsody (ver 2)
video guitarra
Bohemian Rhapsody (ver 3)
video guitarra
Descubre más canciones de Queen