Quiero Mas De Ti (solo), Puerto Seguro (tablatura)

Autor: xziikox | 25491 visualizaciones



E---------------------------14-15-17^19---17^19-17---15-15-14-15-17-19-17-15-17-15-14|
B------------------14-15-17----------------------------------------------------------|
G-------------14-16------------------------------------------------------------------|
D-------14-16------------------------------------------------------------------------|
A----16------------------------------------------------------------------------------|
E------------------------------------------------------------------------------------|

E___________________________________________________________________________________________________
B-------14-15-14-15-17-15-17-19-(21)-19-(21)-17---15-15-14-15-17-15-14----------------------------
G-15-17----------------------------------------------------------------15--------------12---------
D-----------------------------------------------------------------------------[^11]x3--11--[11]x2-
A-----------------------------------------------------------------------------[^11]x3------[11]x2-
E-------------------------------------------------------------------------------------------------



DEBES PILLARLE EL TIEMPO PARA HACER LA ESCALA INICIAL

[11]= solamente razguear las veces indicada
[^11] = debes razguear pero subiendo haciendo un detallado tono empezando del 7 espacio (escucha bien el punteo del tema y verás a lo que me refiero
()= tocar aquel traste subiendole el tono


By Francisco lazcano [Ministerio Música "Templo Horeb Antofagasta"]

nota= yo soy bajista pero algo se de guitarra, asique Bendiciones y que el Señor los Bendiga

Cualquier consulta agregame= [email protected]





Calificar esta versión:
Aviso: Este fichero es trabajo propio de su transcriptor y representa su interpretación personal de la canción. El material contenido en esta página es para exclusivo uso privado, por lo que se prohibe su reproducción o retransmisión, así como su uso para fines comerciales.