Orgullo Nacional, Puerto Seguro (bajo)

Autor: marcos93 | 19116 visualizaciones



:Intro de Guitarra:
:Intro Bass:

G]:-------------:--------------:-------------:-------------:-----:
D]:-------------:--------------:-------------:-------------:-----:
A]:-------------:------2------2:-------------:-------5-4-2-:-----:
E]:0-0---0-3-3-3:5-5-----5-3-5-:0-0---0-3-3-3:5-5----------:0----:

:Estrofa 1:

Cuando se dio la orden todo el sincronismo
comenzo...

G]:---------------:------------:
D]:--7---------5-7:--7---------:
A]:--------5-7----:------------:
E]:5---5-5--------:5----5-5-5-5:

Un blanco fue las torres, el otro cayo en su
corazon...

G]:------------12----14:------------:
D]:--7---12-14----14---:---7--------:
A]:--------------------:------------:
E]:5-------------------:5----5-5-5-5:

:Estrofa 2:

Donde quedo el silencio...

G]:---------------:-------9-7--:---------------:---------------:
D]:---------------:---7-9-----7:---------------:---------------:
A]:3-3-3-3-3-3-3-3:5-----------:3-3-3-3-3-3-3-3:5-5-5-5-5-5-5-5:
E]:---------------:------------:---------------:---------------:

Les invadio...

G]:------------------:------------:
D]:--7------------5-7:---7--------:
A]:----------5-7-----:------------:
E]:5----5-5----------:5----5-5-5-5:

:Estrofa 1:
:Estrofa 3:

Muerte se ve la sangre...

G]:---------------:---------------:---------------:---------------:
D]:---------------:---------------:2-2-2-2-2-2-2-2:4-4-4-4-4-4-4-4:
A]:3-3-3-3-3-3-3-3:5-5-5-5-5-5-5-5:---------------:---------------:
E]:---------------:---------------:---------------:---------------:

Sangra su dolor...

G]:------------------:------------:
D]:--7------------5-7:---7--------:
A]:----------5-7-----:------------:
E]:5----5-5----------:5----5-5-5-5:

:Coro:

G]:-------------:-------------:-------------:-------------:
D]:-------------:-------------:-------------:-------------:
A]:-------------:5-5----------:-------------:5-5----------:
E]:0-0---0-3-3-3:------5-5-5-5:0-0---0-3-3-3:------5-5-5-5:

Es el tiempo ya...

G]:-------------:-------------:---------------:---------------:
D]:-------------:-------------:---------------:---------------:
A]:------2-2-2-2:5-5----------:3-3-3-3-3-3-3-3:5-5-5-5-5-5-5-5:
E]:0-0----------:------5-5-5-5:---------------:---------------:

:Intro:
:Estrofa 1:
:Estrofa 3:
:Coro:

Tiempo ya...

G]:-------------:-------------:-------------:-------------:
D]:-------------:-------------:-------------:-------------:
A]:-------------:5-5----------:-------------:5-5----------:
E]:0-0---0-3-3-3:------5-5-5-5:0-0---0-3-3-3:------5-5-5-5:

Es el tiempo ya...

G]:-------------:-------------:---------------:---------------:
D]:-------------:-------------:---------------:---------------:
A]:------2-2-2-2:5-5----------:3-3-3-3-3-3-3-3:5-5-5-5-5-5-5-5:
E]:0-0----------:------5-5-5-5:---------------:---------------:

El Rey muy pronto...

G]:---------------:---------------:-------:
D]:2-2-2-2-2-2-2-2:4-4-4-4-4-4-4-4:-------:
A]:---------------:---------------:-------:
E]:---------------:---------------:0------:

:Intermedio:

Todo esta en evidencia...

G]:-------------:-------------:-------------:-------------:
D]:-------------:-------------:-------------:-------------:
A]:-------------:-------------:-------------:2------------:
E]:0------------:5------------:0------------:-------------:

No hay tiempo que...

G]:-------------:-------------:-------------:
D]:-------------:-------------:-------------:
A]:-------------:-------------:3------------:
E]:0------------:5------------:-------------:

:Solo de Guitarra:
:Primera Parte:

            x 2 veces                         x 1 vez
G]:-------------:-------------:  :---------------:----------------:
D]:-------------:-------------:  :---------------:----------------:
A]:-------------:5-5----------:  :---------------:5-5-5-5---------:
E]:0-0---0-3-3-3:------5-5-5-5:  :0-0---0-3-3-3-3:---------5-5-5-5:

G]:-------------:-------------:-------------:--------------:
D]:-------------:-------------:-------------:--------------:
A]:-------------:5-5----------:-------------:5-5-5---------:
E]:0-0---0-3-3-3:------5-5-5-5:0-0-0---3-3-3:---------5-5-5:

G]:-------------:-------------:
D]:-------------:-------------:
A]:-------------:5-5-5--------:
E]:0-0-----3-3-3:----------5-5:

:Segunda Parte:

G]:-------------:-------------:---------------:---------------:
D]:-------------:-------------:---------------:---------------:
A]:--------2-2-2:5-5-5--------:3-3-3-3-3-3-3-3:5-5-5-5-5-5-5-5:
E]:0-0----------:------5-5-5-5:---------------:---------------:

G]:---------------:---------------:
D]:2-2-2-2-2-2-2-2:4-4-4-4-4-4-4-4:
A]:---------------:---------------:
E]:---------------:---------------:

:Bass en frase 'que esperar...'

G]:---------------:---------------:
D]:---------------:---------------:
A]:3-3-3-3-2-2-2-2:1-1-1-1-0-0-0-0:
E]:---------------:---------------:

:Coro:
:FInal: 

G]:-------------:------------:-------:
D]:-------------:------------:-------:
A]:-------------:-------5-4-2:3------:
E]:0-0---0-3-3-3:5-5---------:-------:






Calificar esta versión:
Aviso: Este fichero es trabajo propio de su transcriptor y representa su interpretación personal de la canción. El material contenido en esta página es para exclusivo uso privado, por lo que se prohibe su reproducción o retransmisión, así como su uso para fines comerciales.