Gangnam Style, Psy (tablatura)

Autor: pablo2014 | 26726 visualizaciones



PSY-Gangnam Style
G|-------------------------------------|
D|-------------9-9--9-7h9----9-9--987--|
A|--777-999----------------------------|
E|-----------7--7-7--7-----7--7-7------|

    S PSPS PSP    S PSPS PPP
G|----------------------------| <|
D|----9-9--9-7h9----9-9--987--| <| x2
A|----------------------------| <|
E|--7--7-7--7-----7--7-7------| <|

    S PSPS PSP    SSS SSS
G|-------------------------|
D|----9-9--9-7h9-----------|
A|----------------777-999--|
E|--7--7-7--7--------------|

    S PSPS PSP    S PSPS PPP
G|----------------------------| <|
D|----9-9--9-7h9----9-9--987--| <| x3
A|----------------------------| <|
E|--7--7-7--7-----7--7-7------| <|

    S PSPS PSP    SSS SSS
G|-------------------------|
D|----9-9--9-7h9-----------|
A|----------------777-999--|
E|--7--7-7--7--------------|

0:43
    SSSPSPSP    SSSPSPSP    SSSPSPSP    SSSPSPSP
G|--------------------------------------------------|
D|-----5-5-3h5-----7-7-5h7-----9-9-7h9-----9-9-7h9--|
A|--------------------------------------------------|
E|--333-3-3-----555-5-5-----777-7-7-----777-7-7-----|

    SSSPSPSP    SSSPSPSP    SSS PS PS P  SSS PS PS P
G|-----------------------------11-11-11-----11-11-11--|
D|-----5-5-3h5-----7-7-5h7----------------------------|
A|--------------------------999--9--9----999--9--9----|
E|--333-3-3-----555-5-5-------------------------------|

    SSSSSSSS SP SP SP SP   P SP SP SP SP SP SP SP SP
G|------------11-11-11-11--11-11-11-11-11-11-11-11-11\--|
D|------------------------------------------------------|
A|--99999999-9--9--9--9------9--9--9--9--9--9--9--9-----|
E|------------------------------------------------------|

          S PSPS PSP    S PSPS PPP
G|----------------------------------|
D|----------9-9--9-7h9----9-9--987--|
A|----------------------------------|
E|--/15\--7--7-7--7-----7--7-7------|

    S PSPS PSP    S PSPS PPP
G|----------------------------| <|
D|----9-9--9-7h9----9-9--987--| <| x2
A|----------------------------| <|
E|--7--7-7--7-----7--7-7------| <|

    S PSPS PSP    SSS SSS
G|-------------------------|
D|----9-9--9-7h9-----------|
A|----------------777-999--|
E|--7--7-7--7--------------|

    S PSPS PSP    S PSPS PPP
G|----------------------------| <|
D|----9-9--9-7h9----9-9--987--| <| x3
A|----------------------------| <|
E|--7--7-7--7-----7--7-7------| <|

    S PSPS PSP    SSS SSS
G|-------------------------|
D|----9-9--9-7h9-----------|
A|----------------777-999--|
E|--7--7-7--7--------------|

1:36
    S PSPS PSP    S PSPS PPP
G|----------------------------| <|
D|----9-9--9-7h9----9-9--987--| <| x3
A|----------------------------| <|
E|--7--7-7--7-----7--7-7------| <|

    S PSPS PSP    SSS SSS
G|-------------------------|
D|----9-9--9-7h9-----------|
A|----------------777-999--|
E|--7--7-7--7--------------|

    S PSPS PSP    S PSPS PPP
G|----------------------------| <|
D|----9-9--9-7h9----9-9--987--| <| x3
A|----------------------------| <|
E|--7--7-7--7-----7--7-7------| <|

    S PSPS PSP    SSS SSS
G|-------------------------|
D|----9-9--9-7h9-----------|
A|----------------777-999--|
E|--7--7-7--7--------------|

2:06
    SSSPSPSP    SSSPSPSP    SSSPSPSP    SSSPSPSP
G|--------------------------------------------------|
D|-----5-5-3h5-----7-7-5h7-----9-9-7h9-----9-9-7h9--|
A|--------------------------------------------------|
E|--333-3-3-----555-5-5-----777-7-7-----777-7-7-----|

    SSSPSPSP    SSSPSPSP    SSS PS PS P  SSS PS PS P
G|-----------------------------11-11-11-----11-11-11--|
D|-----5-5-3h5-----7-7-5h7----------------------------|
A|--------------------------999--9--9----999--9--9----|
E|--333-3-3-----555-5-5-------------------------------|

    SSSSSSSS SP SP SP SP   P SP SP SP SP SP SP SP SP
G|------------11-11-11-11--11-11-11-11-11-11-11-11-11\--|
D|------------------------------------------------------|
A|--99999999-9--9--9--9------9--9--9--9--9--9--9--9-----|
E|------------------------------------------------------|

          S PSPS PSP    S PSPS PPP
G|----------------------------------|
D|----------9-9--9-7h9----9-9--987--|
A|----------------------------------|
E|--/15\--7--7-7--7-----7--7-7------|

    S PSPS PSP    S PSPS PPP
G|----------------------------| <|
D|----9-9--9-7h9----9-9--987--| <| x2
A|----------------------------| <|
E|--7--7-7--7-----7--7-7------| <|

    S PSPS PSP    SSS SSS
G|-------------------------|
D|----9-9--9-7h9-----------|
A|----------------777-999--|
E|--7--7-7--7--------------|

    S PSPS PSP    S PSPS PPP
G|----------------------------| <|
D|----9-9--9-7h9----9-9--987--| <| x3
A|----------------------------| <|
E|--7--7-7--7-----7--7-7------| <|

    S PSPS PSP    SSS SSS
G|-------------------------|
D|----9-9--9-7h9-----------|
A|----------------777-999--|
E|--7--7-7--7--------------|

    S PSPS PSP    S PSPS PPP
G|----------------------------| <|
D|----9-9--9-7h9----9-9--987--| <| x4
A|----------------------------| <|
E|--7--7-7--7-----7--7-7------| <|

3:15
    SSS SSS  S PSPS PSP    S PSPS PPP
G|-------------------------------------|
D|-------------9-9--9-7h9----9-9--987--|
A|--777-999----------------------------|
E|-----------7--7-7--7-----7--7-7------|

    S PSPS PSP    S PSPS PPP
G|----------------------------| <|
D|----9-9--9-7h9----9-9--987--| <| x2
A|----------------------------| <|
E|--7--7-7--7-----7--7-7------| <|

    S PSPS PSP    SSS SSS    S
G|------------------------------|
D|----9-9--9-7h9----------------|
A|----------------777-999-------|
E|--7--7-7--7----------------7--|





Calificar esta versión:
Aviso: Este fichero es trabajo propio de su transcriptor y representa su interpretación personal de la canción. El material contenido en esta página es para exclusivo uso privado, por lo que se prohibe su reproducción o retransmisión, así como su uso para fines comerciales.
Más versiones de Gangnam Style, Psy
Gangnam Style
acordes
Gangnam Style (ver 2)
acordes
Gangnam Style
tablatura
Descubre más canciones de Psy