Paloma Del Alma Mía, Proyección (tablatura)

Autor: Anónimo | 14747 visualizaciones

Por si acaso no le puse todos los martilleos en el punteo del charango,
por que se veía muy complicado, pero se que ustedes pueden ponerlos si??...
Saludos a mis amigos(as) de la Facultad de Ingeniería de la U.M.S.A.

Las notas de arriba de la tablatura son del acompañamiento de la guitarra.

Charango:
                          FA                  SOLm
e:*|--------------0/1-1-3------------------------------3------
A:*|-0-0/1-1-1-1---- -----0---0--0-0-0-0-0-0-----1-------1----
E:*|----------------------------------------------------------
C:*|-0-0/2-2-2-2----------0------0-0-2-0-----------2---2------
G:*|--------------------------2----------3-2-0-0-----------0--

                           FA                   SOLm
e:*|--------------0/1-1-3-----------------------3---------
A:*|-0-0/1-1-1-1----------0---0--0-0-0-0-0-0-0------1-----
E:*|------------------------------------------------------
C:*|-0-0/2-2-2-2----------0------0-0-2-0----------2-------
G:*|--------------------------2----------3-2-0--------0---

     SIb              FA                     SOLm
e:*|-----------------------------------------3-------------
A:*|---1-1-1-1--1-1-1-0----0--0-0-0-0-0-0-0------1---------
E:*|-3-----------------------------------------------------
C:*|------------2-2-2-0-------0-0-2-0----------2-----------
G:*|-0-3-3-3-3-------------2----------3-2-0--------0-------

     SIb                       FA  SIm      SOLm
e:*|----6-6-6-6-6-6--10-10-10--8---5-8-8-10-8--6-5-3--
A:*|-0------------------------------------------------
E:*|--------------------------------------------------
C:*|-7--7-7-7-7-7-7------------7---7-7-7----7--6-5-2--
G:*|--------------------------------------------------

           FA                 SOLm        FA 
e:*|-10-10-8--5-8-8-10-8--6-5-3-----------------------
A:*|------------------------------0/1-1-1-0-----------
E:*|--------------------------------------------------
C:*|-------7--7-7-7----7--6-5-2---0/2-2-2-0-----------
G:*|--------------------------------------------------

                   SOLm
e:*|------------------------3-------------
A:*|-0--0-0-0-0-0-0-----1-------1---------
E:*|--------------------------------------
C:*|----0-0-2-0-----------2---2-----------
G:*|-2----------3-2-0-0-----------0-------


Se fijaran que en la parte del punteo donde entran los agudos,
para la nota de respaldo le puse puros sietes “7”, en realidad deberían
ir los pares de las otras notas pero se veía muy complicado entonces le
puse sietes q son la nota sol, y como el tema esta en Solm tranquilamente
el remplazo se oye bien.

SIb                    FA 
No había podido olvidarte
DOm             SOLm
Paloma del alma mía. (Bis)

SIb                   FA 
Creí ser tu amor perdido
DOm                    SOLm
Cuando no estabas con migo. (Bis)

       FA         DOm        SOLm
Viditaaay, paloma del alma mía
       FA         DOm        SOLm
Viditaaay, paloma del alma mía

SIb               FA 
Hace poco prometiste
DOm                  SOLm
Que nunca me olvidarías. (Bis)

SIb                 FA 
De tus ojos tu sonrisa
DOm               SOLm
Solo yo disfrutaría. (Bis)


  FA         DOm        SOLm
Viditaaay, paloma del alma mía
       FA         DOm        SOLm
Viditaaay, paloma del alma mía


Quena: En la quena las notas son las mismas
Ya que lleva el ritmo de la letra.


SIb                    FA 
Haciendo caso tus promesas
DOm                    SOLm
Se disipaban mis tristezas. (Bis)

SIb                    FA 
Hoy solo vivo de recuerdos
DOm                     SOLm
De aquellos bellos momentos. (Bis)

  FA         DOm        SOLm
Viditaaay, paloma del alma mía
       FA         DOm        SOLm
Viditaaay, paloma del alma mía


No había podido olvidarte...etc.

El tema finaliza con el punteo del charango.

Cualquier duda, sugerencia o queja me la hacen llegar
a mi correo x0_Kenneth_0x@hotmail.com Chau!!!...
Calificar esta versión:
Aviso: Este fichero es trabajo propio de su transcriptor y representa su interpretación personal de la canción. El material contenido en esta página es para exclusivo uso privado, por lo que se prohibe su reproducción o retransmisión, así como su uso para fines comerciales.
Más versiones de Paloma Del Alma Mía, Proyección
Paloma Del Alma Mía
acordes
Paloma Del Alma Mía
tablatura
Descubre más canciones de Proyección