No Vuelvo A Amar, Proyección (tablatura)

Autor: Anónimo | 20434 visualizaciones

Agradecimientos a mi hermanita Laura que me ayudo a sacarla.
En la parte que vean G· pueden usar la pisada que les doy o sino G normal,sale igual pero suena
un poco mejor con el que yo les pongo.

Intro:

E:--2-2-2/5-5-5----10-10-10--9--7-----7-7-7/10-10-10----12-10-7-5----                 G·
B:-------------------------------------------------------------------         E:--3---
G:-------------------------------------------------------------------            B:--3---
                                                                  G:--4---
                                                                  D:--5---
                                                            A:--5---
E:--2-2-2/5-5-5----10-10-10--9--7-----7-7-7/10-10-10----12-10-14-10--         E:--3---
B:-------------------------------------------------------------------
G:-------------------------------------------------------------------



  D                         G
     Me vi perdido y sin saver
                          D
     que yo moría sin querer
                           G
     ya no confiaba en otro ser
                             D
     porque perdí a la que ame


BAJO RÁPIDO:
E -------------------
B -------------------
G -------------------
D -0-4-2-0-----------
A ---------4-2-0-----
E ---------------3-2-


                F#            Bm
     Tu me enseñaste a compartir
                G·          D
     mi vida entera te ofrecí
               F#            Bm
     tanta ternura te entregué
                G·       D
     solo tu olvido recibí
                  F#            Bm
     porque el cariño suele cambiar
               G·              D
     si sabe amar también olvidar
                    F#            Bm
     No existe el tiempo para borrar
                  G·             D
     tu inmenso amor tu dulce mirar
                 F#
     Quiero olvidar
               Bm
     No puedo más
                   G·
     No vuelvo a amar
         D
     Aaaahhh

Se repite todo nuevamente.

e:--2-2-2/5-5-5----10-10-10--9--7-----7-7-7/10-10-10----12-10-7-5-----------------
B:--------------------------------------------------------------------------------



e:--2-2-2/5-5-5----10-10-10--9--7-----7-7-7/10-10-10----12-10-14-10---------------
B:--------------------------------------------------------------------------------

  D                         G
     Me vi perdido y sin saver
                          D
     que yo moría sin querer
                           G
     ya no confiaba en otro ser
                             D
     porque perdí a la que ame


BAJO RÁPIDO:
E -------------------
B -------------------
G -------------------
D -0-4-2-0-----------
A ---------4-2-0-----
E ---------------3-2-


                F#            Bm
     Tu me enseñaste a compartir
                G·          D
     mi vida entera te ofrecí
               F#            Bm
     tanta ternura te entregué
                G·       D
     solo tu olvido recibí
                  F#            Bm
     porque el cariño suele cambiar
               G·              D
     si sabe amar también olvidar
                    F#            Bm
     No existe el tiempo para borrar
                  G·             D
     tu inmenso amor tu dulce mirar
                 F#
     Quiero olvidar
               Bm
     No puedo más
                   G·
     No vuelvo a amar
         D    D
     Aaaahhh


Esta rola va dedicada de principio a fin para la chica que mas quise y que nunca olvidare por
todo los momentos que pasamos juntos. Para ti Indira estes donde estes...
Calificar esta versión:
Aviso: Este fichero es trabajo propio de su transcriptor y representa su interpretación personal de la canción. El material contenido en esta página es para exclusivo uso privado, por lo que se prohibe su reproducción o retransmisión, así como su uso para fines comerciales.
Más versiones de No Vuelvo A Amar, Proyección
No Vuelvo A Amar
acordes
No Vuelvo A Amar
tablatura
Descubre más canciones de Proyección