Mi última Carta, Prince Royce (tablatura)

Autor: Anónimo | 27310 visualizaciones



ParA mi PRinCEsA DGisSElL


PrimErO Q NAdA La CaNcIoN lLeVa CaPO En El tERcER TRaStE



INTRO
        G
e---------3-----3-----------
B---------3------3----------
G-----------------0---------
D---------------------------
A------2--------------------
E---------3-----------------
        D
e------2---------2----------
B---------3-------3---------
G------2-----------2--------
D---------------------------
A---------------------------
E---------------------------
        Em
e---------------0-----------
B----------------0----------
G-----------------0---------
D------2--------------------
A------2--------------------
E---------------------------
          C
e---------------------------
B--1------------------------
G---------------------------
D-----2---------------------
A---------3-----------------
E---------------------------
          D
e------2---------2----------
B---------3-------3---------
G------2-----------2--------
D---------------------------
A---------------------------
E---------------------------
          D
e------2-----S3-------------
B---------3-----------------
G------2--------------------
D---------------------------
A---------------------------
E---------------------------

  G                                         D
ya son las dos de la mañana y todavia sigo aqui
                           C
escribiendo una carta para ti
                                  D
solo pensando en todo lo que sucedio
                                     G
y en los errores cometidos en este amor
                                    D
como es posible que mi esposa me boto
                                 C
mi hogar, mi alma todo lo destruyo
                                   D
me quedo solo frio en esta habitacion
        D
soy un difunto
       G             D              Em    C
y no se porque esta novela termino asi  [asi]
        G            D                       Em     C
en papel escribo mi historia y te la entrego ati  [ati]

            G
y querida amada
                                    D
esta es la ultima carta que te escribo
                                    Em
mi ultimas letras y te dejo en el olvido
          C                        D
como es posible que no sepas perdonar
         G
y querida amada

                                D
este fracaso se lo dejo al destino
                                  Em
prometo que yo nunca quise lastimarte
     C
y aunque te vas
                D
por siempre te amare (te amare)

     G                                           D
y alfin y al cabo e tratado de areglar la situacion
                                   C
pero me hechas como un perro sin valor
                              D
cada minuto me enveneno con rencor
                               G
al ver tu cara solo crece mi odio
                                 D
se que alfinal solo te vas arrepentir
                                 C
te daras cuenta de todo lo que sufri
                                 D
cuando regreses ya yo no estare aqui
            D
y solo pregunto


      G             D              Em    C
y no se porque esta novela termino asi  [asi]
        G            D                       Em     C
en papel escribo mi historia y te la entrego ati  [ati]


    G
y querida amada
                                    D
esta es la ultima carta que te escribo
                                    Em
mi ultimas letras y te dejo en el olvido
          C                        D
como es posible que no sepas perdonar
         G
y querida amada

                                D
este fracaso se lo dejo al destino
                                  Em
prometo que yo nunca quise lastimarte
     C
y aunque te vas
                D
por siempre te amare (te amare)

e-----3-3-3-----2-2----0-0---------
B------------------------------3---
G----------------------------------
D----------------------------------
A----------------------------------
E----------------------------------

e-----3-3-3-----2-2----0-0---------
B------------------------------3---
G----------------------------------
D----------------------------------
A----------------------------------
E----------------------------------

e----5-5-5----3-3----2----3-3s5-5------3-2-2s3-
B----------------------------------------------
G----------------------------------------------
D----------------------------------------------
A----------------------------------------------
E----------------------------------------------

e-----3-3-3-----2-2----0-0---------
B------------------------------3---
G----------------------------------
D----------------------------------
A----------------------------------
E----------------------------------

e-----3-3-3-----2-2----0-0---------
B------------------------------3---
G----------------------------------
D----------------------------------
A----------------------------------
E----------------------------------

se toca un poco rapido
e-----13-13-13----11-11-11----10-10-10-----8-8-8---
B--------------------------------------------------
G--------------------------------------------------
D--------------------------------------------------
A--------------------------------------------------
E--------------------------------------------------
    G             D              Em    C
y no se porque esta novela termino asi  [asi]
        G            D                       Em     C
en papel escribo mi historia y te la entrego ati  [ati]


    G
y querida amada
                                    D
esta es la ultima carta que te escribo
                                    Em
mi ultimas letras y te dejo en el olvido
          C                        D
como es posible que no sepas perdonar
            G
y querida amada (nou nou nou no)
            D
(querida amada) haaaiaia
             Em                  C
(querida amada) ya no te quiero ati
              D
(querida amada) y ya no regreso aqui
                G
(querida amada) haaauoo
             D
(querida amada)
             Em               C
(querida amada) y aunque me duela
             D            G
(querida amada) ya se acabo
         G
e---------3-----3-----------
B---------3------3----------
G-----------------0---------
D---------------------------
A------2--------------------
E---------3-----------------

CUALQUIER DUDA ESCRIBAN A : dg_bryan1025@hotmail.com





Calificar esta versión:
Aviso: Este fichero es trabajo propio de su transcriptor y representa su interpretación personal de la canción. El material contenido en esta página es para exclusivo uso privado, por lo que se prohibe su reproducción o retransmisión, así como su uso para fines comerciales.
Más versiones de Mi última Carta, Prince Royce
Mi última Carta
acordes
Mi última Carta
tablatura
Descubre más canciones de Prince Royce