Hay Siempre Un Sentimiento Muerto En Uncorazónroto, Porta (tablatura)

Autor: Anónimo | 24751 visualizaciones

Hola acá [Flavio] les dejo esta canción

|-----8-6-4-6------------------6------
|--6--------------6-8-9---9------9-8--
|-------------------------------------
|-------------------------------------
|-------------------------------------
|-------------------------------------

[A partir de aqui se repite]

|----------8-6-4-6-------------------------8----
|------6-------------6-8-9---9-8---6-4-6-----6--
|--5-5------------------------------------------
|-----------------------------------------------
|-----------------------------------------------
|-----------------------------------------------

|----------8-6-4-6---------------6--------------
|------6-------------6-8-9---9-----9-8----------
|--5-5------------------------------------------
|-----------------------------------------------
|-----------------------------------------------
|-----------------------------------------------

cualquier cancion escribanme a mi correo
Flaviorhcp29@hotmail.com y visiten mi blog
http://flavioguitarra.blogspot.com/
Calificar esta versión:
Aviso: Este fichero es trabajo propio de su transcriptor y representa su interpretación personal de la canción. El material contenido en esta página es para exclusivo uso privado, por lo que se prohibe su reproducción o retransmisión, así como su uso para fines comerciales.
Más versiones de Hay Siempre Un Sentimiento Muerto En Uncorazónroto, Porta
Hay Siempre Un Sentimiento Muerto En Uncorazónroto
tablatura
Hay Siempre Un Sentimiento Muerto En Uncorazónroto (ver 2)
tablatura
Descubre más canciones de Porta