Corazon, Boli Y Papel, Porta (tablatura) (ver 2)

Autor: daravius | 46042 visualizaciones

e----7-8-10---8-7---------|-----7-8-10---8-10---12-8-|
B-10----------------10----|--10----------------------|
G----------------------9--|--------------------------|
D-------------------------|--------------------------|
A-------------------------|--------------------------|
E-------------------------|--------------------------|

e-----7-8-10---8-10---12---8--12-10----8-10-8-7----------
B--10--------------------------------------------10-8--10
G--------------------------------------------------------
D--------------------------------------------------------
A--------------------------------------------------------
E--------------------------------------------------------

e----7-8-10---8-7-------|------7-8-10---8-10---12--|
B-10---------------10---|---10---------------------|
G---------------------9-|--------------------------|
D-----------------------|--------------------------|
A-----------------------|--------------------------|
E-----------------------|--------------------------|

e-----7-8-10---8-10--12---8-12-10--8-10-7------------|-------|
B-10-----------------------------------------10-8--10|----10-|
G----------------------------------------------------|--9----|
D----------------------------------------------------|-------|
A----------------------------------------------------|-------|
E----------------------------------------------------|-------|

Comentarios del colaborador: espero que les guste

Calificar esta versión:
Aviso: Este fichero es trabajo propio de su transcriptor y representa su interpretación personal de la canción. El material contenido en esta página es para exclusivo uso privado, por lo que se prohibe su reproducción o retransmisión, así como su uso para fines comerciales.
Más versiones de Corazon, Boli Y Papel, Porta
Corazon, Boli Y Papel
tablatura
Corazon, Boli Y Papel (ver 2)
tablatura
Descubre más canciones de Porta