Baby Come Back, Player (tablatura)

Autor: Santiago Del | 43538 visualizaciones



E----------------------------------------------------------------
B---------3--4--6--3------------------3--4--6--------------------
G--5~--5--------------3-------5~--5------------3--/7--5----------
D------------------------5---------------------------------------
A----------------------------------------------------------------
E----------------------------------------------------------------



E------------3--4-----------------------3--4---------------------
B--4~--4--6--------6~--3------4~--4--6-------3--/6--4------------
G-------------------------3--------------------------------------
D----------------------------------------------------------------
A----------------------------------------------------------------
E----------------------------------------------------------------





Comentarios del colaborador: tomado de la pagina :http://www.ultimate-guitar.com/tabs/p/player/baby_come_back_tab.htm

Calificar esta versión:
Aviso: Este fichero es trabajo propio de su transcriptor y representa su interpretación personal de la canción. El material contenido en esta página es para exclusivo uso privado, por lo que se prohibe su reproducción o retransmisión, así como su uso para fines comerciales.
Más versiones de Baby Come Back, Player
Baby Come Back
acordes
Baby Come Back
tablatura
Descubre más canciones de Player