Que Demonios, Platero Y Tú (tablatura)

Autor: Anónimo | 29855 visualizaciones

Bueno, aki os dejo el principio de lo ke hace la guitarra
en esta pedazo cancion.



e-----------------------------------------------------I
B-----------------------------------------------------I
G-----------------------------------------------------I
D---14-12-10-12-14-12-10----9-10-9----9----9----------I
A------------------------12--------12---12---12-10----I
E--------------------------------------------------12-I


e-------------------------------------------------------I
B-------------------------------------------------------I
G--------------------9-12-14-14-14-12-10-12-10-9---10-9-I
D--------------10-12-----------------------------12-----I
A--------10-12------------------------------------------I
E--10-12------------------------------------------------I


e------------------------------------------------------I
B---------------------10-11-12-13-15-17-17-17-15-13-15-I
G-----------9-9-12-12----------------------------------I
D--10-12-12--------------------------------------------I
A------------------------------------------------------I
E------------------------------------------------------I


e------------------------------------------------------I
B-15-17-15-13------------------------------------------I
G-------------14-14-12---------------------------------I
D---------------------14-12----------------------------I
A---------------------------15-14-12----15-------------I
E------------------------------------15----------------I


Si hay alguna duda: edu1988@hotmail.com
Calificar esta versión:
Aviso: Este fichero es trabajo propio de su transcriptor y representa su interpretación personal de la canción. El material contenido en esta página es para exclusivo uso privado, por lo que se prohibe su reproducción o retransmisión, así como su uso para fines comerciales.
Más versiones de Que Demonios, Platero Y Tú
Que Demonios
acordes
Que Demonios
tablatura
Descubre más canciones de Platero Y Tú