Naufragio, Platero Y Tú (tablatura)

Autor: Anónimo | 29394 visualizaciones

Bueno modifico la que habia que tenia algunos fallos:

Intro y Estrofas:
  Dm          F            C         Gm
e-------------1---------------1&0----33------------------------|
B-------------1---------1--55----1---33------------------------|
G-77----------1--0-2---2-2-55-----2--33------------5-----------|
D-77--3-0-----3------3-----33--------55------3-5s7---6p5-------|
A-55------3-0-3----------------------55--3-5-------------8-5---|
E------------11----------------------33----------------------8-|

 Dm
e--5-5-5-5---------------|
B-6-6-6-6---5h7p5h7p5----|
G---------------------7--| (") Punteo del primer estribillo
D------------------------|
A------------------------|
E------------------------|

 Dm
e------------------------|
B------------------------|
G------------------------| (*) Esto va al final de los demas estribillos
D------------------5-----|
A--5-4-3-2--------4------|
E----------6-5-4-3-------|

Dm                              F
Sólo soy un ave que volaba pero se cansó;
C                                    Gm
déjame posarme entre las ramas de tu corazón.
Dm                                 F
Al mirar,estaba tan oscuro que no pude ver
   C                                         Gm
y me choqué de morros contra el muro de la estupidez.


Bb           C                     Dm
Yo sigo esperando y se acaban las horas
C            Bb                    Dm
en el mismo sitio donde vuelves tú ahora.
F                 C                     Dm
Restos de un naufragio que trajeron las olas(")


Dm                                       F
De cartón.Si todo es de mentira todo es de cartón.
C                                    Gm
Para que buscar entre cenizas una explicación
Dm                                               F
si al final se está acabando el tiempo y eso es lo peor;
C                                       Gm
en la piel se me han clavado las agujas del reloj.


Bb           C                     Dm/C/Dm/Dm/Dm/C/Dm
Yo sigo esperando y se acaban las horas
C            Bb                    Dm/C/Dm/Dm/Dm/C/Dm
en el mismo sitio donde vuelves tú ahora.
F                 C                     Dm/C/Dm/Dm/Dm/C/Dm
Restos de un naufragio que trajeron las olas(*)

1º solo:


e|---------------------------------------------------------|
B|--13b-13b-----------13--13-13-11-10---------11-----------|
G|---------12b-10h12-----------------12--10h12-------------|
D|---------------------------------------------------------|
A|---------------------------------------------------------|
E|---------------------------------------------------------|

e|-------------(---10--10-----)----------------------------|
B|----10-13-10-(13b-13b-13b...)-13p10----------------10-13-|
G|-----------------------------------12h10-12b----10-------|
D|---------------------------------------------12----------|
A|---------------------------------------------------------|
E|---------------------------------------------------------|

()-->Se repite varias veces las notas.

e|---------------5---------5---------5-6-5h6-8---------|
B|-------------6---8-----6---8-----6-------------------|
G|---------5-5-------5-5-------5-5---------------------|
D|-----------------------------------------------------|
A|-----------------------------------------------------|
E|-----------------------------------------------------|

bajo este solo puntea el principio de la canción.
Falta el solo del resto de la canción.
Calificar esta versión:
Aviso: Este fichero es trabajo propio de su transcriptor y representa su interpretación personal de la canción. El material contenido en esta página es para exclusivo uso privado, por lo que se prohibe su reproducción o retransmisión, así como su uso para fines comerciales.
Más versiones de Naufragio, Platero Y Tú
Naufragio
acordes
Naufragio
tablatura
Descubre más canciones de Platero Y Tú