La Vecina, Platero Y Tú (tablatura) (ver 2)

Autor: Anónimo | 39988 visualizaciones

+ Tabulados de made in spain!                   +
+ [http://mades.kaos.es]                        +
+++++++++++++++++++++++++++++++++++++++++++++++++

        Esta cancion para que suene bien bien,. hay que tokarla con dos
   guitarras

        El bajo empieza con los cuatro notas que van a durar toda la cancion:

     G     B       C      A D A D A
G |-------------------------------------|
D |-------------------------------------|
A |--------2*--2---3*--3----5---5-------|
E |--3*--3----------------5---5---5-----|

        El * significa que es una nota mas o menos larga, y que la viene
   es muy corta. Ahora entra la primera guitarra con esos mismos acordes
   y despues la segunda guitarra con el punteillo ese tan cachondo.


e |---------------------------------------------------------------------------|
B |-----0-0--------0-------0--------0 0-------0-------0--------1-1-------1----|
G |--0-------2-0 2---2-0-2---2-0-..-----2-0-2---2-0-2---0-..-2-----4-2-4------|
D |---------------------------------------------------------------------------|
A |---------------------------------------------------------------------------|
E |---------------------------------------------------------------------------|

e |----------------------------------------:--------------------------------|
B |--------1--------1-1-------1-------1----:--------------------------------|
G |--4-2-4---4-2-..-----4-2-4---4-2-4---4--:--(volver al principio)---------|
D |----------------------------------------:--------------------------------|
A |----------------------------------------:--------------------------------|
E |----------------------------------------:--------------------------------|



G               B     C                            A  DADA       
Una noche de calor ... sali a la ventana pa'fumar
G             B        C             A   DADA
algo que bien liao ... , me ayudara a sobar
G                   B       C                  A  DADA
lance la chicharra para ver ... si le acertaba a una señal
G                     B        C                 A  DADA      
cuando de pronto frente a mi ... se ilumino un ventanal



estribillo :
----------

esos mismos acordes de la 1º parte pero con el punteillo cachondo en la
2º guitarra.

Luego ya sabeis, las demas estrofas son igual que la primera, y el punteo ...
si quereis el punteo sacarlo vosotros, que yo no me voy a rayar con eso ...
(siempre queda mejor inventarse uno) ..
Calificar esta versión:
Aviso: Este fichero es trabajo propio de su transcriptor y representa su interpretación personal de la canción. El material contenido en esta página es para exclusivo uso privado, por lo que se prohibe su reproducción o retransmisión, así como su uso para fines comerciales.
Más versiones de La Vecina, Platero Y Tú
La Vecina
tablatura
La Vecina (ver 2)
tablatura
Descubre más canciones de Platero Y Tú