Juliette, Platero Y Tú (tablatura)

Autor: Anónimo | 15616 visualizaciones

Pues nada, otra tablatura más, dedicada a toda la peña de San pedro
que siempre me invita a esos wenos cubatas, saludos a todos ellos, :D



Estribillo: Este riff tambien se utiliza como estrofa

  Juliette........
   x2                  x2
e[-----------------/-----------------/-----------------/-----------------/-
B[-----------------/-----------------/-----------------/-5-5-5-5-5-5-5-5-/-
G[-2-2-2-2-2-2-2-2-/-----------------/-5-5-5-5-5-5-5-5-/-4-4-4-4-4-4-4-4-/-
D[-2-2-2-2-2-2-2-2-/-2-2-2-2-2-2-2-2-/-5-5-5-5-5-5-5-5-/-2-2-2-2-2-2-2-2-/-
A[-0-0-0-0-0-0-0-0-/-2-2-2-2-2-2-2-2-/-2-2-2-2-2-2-2-2-/-----------------/-
E[-----------------/-0-0-0-0-0-0-0-0-/-----------------/-----------------/-

e[----------------------------------]
B[----------------------------------]
G[-2-2-2-2-2-2-2-2-2----------------]
D[-2-2-2-2-2-2-2-2-2-2-1-2---2------]
A[-0-0-0-0-0-0-0-0-0-------4--4-2---]
E[----------------------------------]

Solo:el acompañamiento de este solo es el de la estrofa.

e[---------------------------------------------------/- > Hammer on
B[---------------------------------------------------/- < Pull of
G[--6-4---4-6---4-6-7-6>7<6-4-4---6^(1/2)-4-4---6-4-4-/- ^ Bend (cantidad marcada en tono)
D[------7-----7-----------------7------------7-------/- / Ligado
A[---------------------------------------------------/-
E[---------------------------------------------------/-

e[-----------------2<0------------------------------------]
B[-10<9-9/7-7/5-5/3----5/3-3<2-2<0-------------------------]
G[--------------------------------2-1-2-------------------]
D[---------------------------------------2-1-2---2--------]
A[---------------------------------------------4---4-2----]
E[--------------------------------------------------------]


Estrofa x2: Se hace el riff del "Estribillo" con la siguiente variacion al final
antes de volver al Estribillo.

e[-------------------]
B[-------------------]
G[-9-8-7-6-5---------] Y despues de esto se puede decir q se repite
D[-7-6-5-4-3---------] todo de nuevo hasta llegar al puente.Escucharos
A[-------------------] el tema y lo estructurareis mejor.
E[-------------------]

Puente:

                     Tu verdad.....
                     x2
e[-----------------/------------------------/----
B[-----------------/------------------------/----
G[-----------------/------------------------/----
D[-7-6-5-4-3-4-5-6-/------------------------/----
A[-5-4-3-2-1-2-3-4-/-------7-4-5-6-7-6-5-4--/----
E[-----------------/-0-5/7------------------/----

  x3 No te importa.....
e[-------------------/---------------------------------]
B[-------------------/---------------------------------]
G[-------------------/---------------------------------]
D[-------------------/---------------------9-9-9-9-----] y despues de esto otra vez todo
A[---4-5-6-7-6-5-4---/-5-6-7---5-6-7---5-6-7-7-7-7-----] de nuevo basicamente
E[-0---------------0-/-------0-------0-----------------]

Bueno, se que falta unos cambios q hace al final y miles de detallitos, pero joder
esque como ponga todo van a hacer diez mil paginas. Y como en esa parte no se canta ni na
Si estais interasados en la tablatura  con los detallitos y demas o
para dudas quejas y felicitaciones  Slash_gibson20@hotmail.com Un saludo
Calificar esta versión:
Aviso: Este fichero es trabajo propio de su transcriptor y representa su interpretación personal de la canción. El material contenido en esta página es para exclusivo uso privado, por lo que se prohibe su reproducción o retransmisión, así como su uso para fines comerciales.
Más versiones de Juliette, Platero Y Tú
Juliette
acordes
Juliette
tablatura
Descubre más canciones de Platero Y Tú