Entre Dos Mares, Platero Y Tú (acordes) (ver 2)

Autor: Anónimo | 41127 visualizaciones

abddosos5eglala5rere5si5
              Si*        La*       Sol*        Re*

             G--4--     G-----    G-------    G--7--
             D--4--     D--7--    D---5---    D--7--
 1a guit     A--2--     A--7--    A---5---    A--5--   
             E-----     E--5--    E---3---    E-----                                                                 

             E--7---    E--5---   E---10--    E--10-
 2a guit     B--7---    B--5---   B---12--    B--10-
             G--8---    G--6---   G---12--    G--11-
             D--9---    D--7---   D---12--    D--12-

    Se toca la quinta una vez, y luego los los acordes invertidos 
de apoyo varias veces, dejando sonar la quinta.

  Intro [Riff1]

     Re                  La
  
  e--2-2--2-5-2-0-------0-0----0--------------
  B--3-3----------3-0---2-2--2---2-0----------
  G--2-2----------------2-2----------2--------  [2 veces]
  D--0-0----------------2-2-------------------
  A---------------------0-0-------------------
  E-------------------------------------------

  [Riff2]

  e-----2--3-2----------------------------
  A----3------------2--3--2---------------
  D---2------------2----------------------  [2 veces]
  G--0------------2-----------------------
  A---------------------------------------
  E---------------------------------------  
  
   Re5-La5 [Abmos con palm mute]  

  [Riff3]

  e--3-2-2-3-3-3-3----------------------
  A--3-3-3-3-2-3-2---3-2-2-3-2-3-2------ 
  D------------------2-2-2-2-2-2-2------
  G-------------------------------------
  A-------------------------------------
  E-------------------------------------

 

  RE5 [muteado]
  No puedo concebir que tu seas tan idiota;
  La5 [muteado]
  el triunfo del poder siempre es una derrota
  Re5 [...] 
  y te has quedao colgao y la verdad es otra.
  La5
  El mundo es de papel y con papel se compra.

  Re5 [2a guitarra Riff3]
  Si no me gusta asi tiro de la cadena;
  La5
  no sufro por llegar. Se que nadie me espera.
  Re5 [Riff3]
  Tantos homenajes por personajes muertos:
  La5                                 E--5h6--
  primero el puñetazo, luego el monumento.

  Si*                 A--0- Sol*                      A-2H3- Re*
  Perdido entre dos mares, sin viento sin bandera.
                E-2h3-   La*                    E--5h6
  No quiero escaparates: quiero la vida entera.
  Si*                  A--0- Sol*           Re5-Do#5-Si5-La5-Re5-Re5-La5
  Soy un bufón errante buscando una princesa.

 
  Riff 4 [variacion del riff 3]
                                          PM
 e--3-3--2-2--3-2-------------------3-3--2-2--3-2-------------------0-0-0--
 B--3-3--3-3--3-3---3-3--2-2--3-2---3-3--3-3--3-3-----7/8--7--------2-2-2--
 G------------------2-2--2-2--2-2-----------------------------9--7--2-2-2--
 D------------------------------------------------------------------2-2-2--
 A------------------------------------------------------------------0-0-0--
 
  Riff 2 [2 veces]


  Re5
  A veces he pensao pero me da agujetas...
  La5
  Cuidao que mi guitarra es una metralleta.
  Re5
  ¡Maldito desgraciao, tu voz no es la de todos!
  La5                                     E--5h6--
  Ponte el traje de luces que te coge el toro.

  Si*                  A--0- Sol*                    A-2H3- Re*  
  Perdido entre dos mares sin viento, sin bandera...
                   E-2h3- La*                  E--5h6
  No quiero escaparates: quiero la vida entera.
  Si*             A--0- Sol*                 Re5-Do#5-Si5-La5-Re5-Re5-La5
  Soy un bufón errante buscando una princesa.


  Si*            A-0- Sol*                A-2H3- Re*
  No necesito llaves para cruzar las puertas y
                   E-2h3- La*                   E--5h6    
  me quedare en el aire para no pisar la mierda.
  Si*                 A-0- Sol*      
  Soy un bufon errante buscando una princesa...
  Re*                 E-2h3- La5
  Si esta noche te apetece...   ¡Deja la ventana abierta!


  Riff 4 +  repetir riff1

  Solo final sobre riff 1

  NOTA: Las notas que se tocan tras los acordes son opcionales [son de bajo], 
pero quedan genial [para saber el tempo se oye el la canción del disco y se
pilla enseguida].
Calificar esta versión:
Aviso: Este fichero es trabajo propio de su transcriptor y representa su interpretación personal de la canción. El material contenido en esta página es para exclusivo uso privado, por lo que se prohibe su reproducción o retransmisión, así como su uso para fines comerciales.
Más versiones de Entre Dos Mares, Platero Y Tú
Entre Dos Mares
acordes
Entre Dos Mares (ver 2)
acordes
Descubre más canciones de Platero Y Tú