El Roce De Tu Cuerpo, Platero Y Tú (bajo)

Autor: Anónimo | 29186 visualizaciones

La mayor parte de la canción se toca haciendo slap


   Intro
G|---------------------------------7-----7---7-----7---9-----9---9---9-|
D|-------------5-----5---5-----5---------------------------------------|
A|--3----5-----------------------5---5-5---5---5-5---7---7-7---7---77--|
E|----------3----3-3---3---3-3-----------------------------------------|


G|------------------7-------7-----9------9-----9------9-------------------|
D|-----5------5-----------------------------------------------------------|
A|---------------5-----5-5-----7-----7-7----7-----7-7---------------------|
E|--3----3-3--------------------------------------------------------------|
     Te pilla la tarde en tu cuarto otra vez

G|-----------------7-----7-----9-------9----9-------9--------|
D|----5------5-----------------------------------------------|
A|--------------5----5-5----7-----7-7----7-----7-7------3---5|
E|-3----3-3--------------------------------------------------|
   No suena el telefono y tu sabes por que

G|------------------7-------7-----9------9-----9------9-------------------|
D|-----5------5-----------------------------------------------------------|
A|---------------5-----5-5-----7-----7-7----7-----7-7---------------------|
E|--3----3-3--------------------------------------------------------------|
    Cervezas vacias en tu habitacion

G|-----------------7-----7-----9-------9----9-------9-------------|
D|----5------5----------------------------------------------------|
A|--------------5----5-5----7-----7-7----7-----7-7-----------2----|
E|-3----3-3--------------------------------------------3--5------3|
     El cenicero lleno en un rincon

G|-----------------------------------------------------------------------|
D|----------5------5----5----------------------------5-----5-------------|
A|-3--5----------------------------2------3---5--------------------2-----|
E|-------3----3-3----3-----3---5------3-----------3----3-3---3--5-----3--|
Seguro que sola esta ella tambien     Tirada en la cama sin saber que hacer

G|------------------------------------------------------------------------|
D|----------5------5----5-------------------------------------------------|
A|-3--5---------------------------2-----2--3---5-5---5-5--5-5--5-5-5-5-5-5|
E|-------3----3-3----3-----3---5-----3------------------------------------|
No sé comenzó la discusión            Y a quien le toca ahora pedir perdón

G|----------------------------------------------------------|
D|----------------------------------------------------------|
A|------5---------------------3---5----------3--------5---5-|
E|3--------------0------------------------------------------|
Y creo que muero si no siento el roce de tu cuerpo junto a mi


Visita la web de mi grupo: www.almaletal.com
o el espacio www.myspace.com/almaletal2
Calificar esta versión:
Aviso: Este fichero es trabajo propio de su transcriptor y representa su interpretación personal de la canción. El material contenido en esta página es para exclusivo uso privado, por lo que se prohibe su reproducción o retransmisión, así como su uso para fines comerciales.
Más versiones de El Roce De Tu Cuerpo, Platero Y Tú
El Roce De Tu Cuerpo
acordes
El Roce De Tu Cuerpo
tablatura
El Roce De Tu Cuerpo
bajo
Descubre más canciones de Platero Y Tú