Cigarrito, Platero Y Tú (bajo)

Autor: Anónimo | 41642 visualizaciones

Esta cancion parece dificil pero cuando la ves es facil.

Cuando empìezan las guitarras el bajo entra dentro de
poco y hace lo siguiente durante un buen rato.

G ----------
D ----------
A ------1---
E----3------

Luego hay un trozo en el k cambia y hace esto:

G -------------
D --------5----
A --6-5-6------
E -------------

empieza a cantar Fito:

G ----------------
D ----------------
A ----6--3--------   x2
E -3--------1-2---

Despues empiezan a variar haciendo lo siguiente:

G ----------------------------------------------
D -----------------------5-------5--------------
A ---1---1---1---1-6-5-6---6-5-6---3-1-0---3-1-0
E -3---3---3---3-------------------------3------

G ------------------
D ------------------
A ---3---3---5---5--
E -1---1---2---2----

Y llega el estribillo:

G -----------------------------
D 1-----------------4-5--------
A --1---0-3-0---0-5-----5------
E ----1-------2-----------6-5--

Luego se repite lo mismo y llega al momento instrumental
donde el bajo hace todo el rato el primer ritmo:

G ---------
D ---------
A ------1--
E ---3-----

Al terminar hay un pequeño trozo donde varia un poco:

G ----------------
D ----------------
A -------6--6-----
E --3--3------3---

Y ya todo igual hasta el final hasta que antes de acabar
hace una pequeña escala:

G -----------------
D -----------3-4-5-
A ---1-3-4-5-------
E -3---------------

Y esto es todo amigos.......;-)
                                  ..Gandy..
Calificar esta versión:
Aviso: Este fichero es trabajo propio de su transcriptor y representa su interpretación personal de la canción. El material contenido en esta página es para exclusivo uso privado, por lo que se prohibe su reproducción o retransmisión, así como su uso para fines comerciales.
Más versiones de Cigarrito, Platero Y Tú
Cigarrito
acordes
Cigarrito
bajo
Descubre más canciones de Platero Y Tú