Alucinante, Platero Y Tú (tablatura)

Autor: Anónimo | 45263 visualizaciones

Intro: La guitarra de Uoho toca esto:

E||-------|--5-----4-----7-----4-----|--5-----4-----7-----4-----|
B||-------|--5-----5-----5-----5-----|--5-----5-----5-----5-----|
G||-------|--------------------------|--------------------------|
D||-------|--------------------------|--------------------------|
A||-------|--------------------------|--------------------------|
E||-------|--------------------------|--------------------------|



--5-----4-----7-----4-----|--5-----4-----7-----4-----|
--5-----5-----5-----5-----|--5-----5-----5-----5-----|
--------------------------|--------------------------|
--------------------------|--------------------------|
--------------------------|--------------------------|
--------------------------|--------------------------|

Mientras, la segunda guitarra, la de Fito, entra poco a poco junto a
la batería en La, para después tocar los acordes de la estrofa:
LA, FA#, MI (sexta cuerda), RE, MI (quinta cuerda, más agudo). En quintas.

LA      FA#m
No sé si es cierto lo que he visto
MI      RE            MI
o es el efecto de una droga.
LA         FA#m
¡Qué bien! Hoy todo es tan distinto...
MI     RE           MI
parece que el mundo funciona.

Guitarra 2: Arpegio durante toda esta estrofa

--------------------------|--------------------------|
--------------------------|--------------------------|
--2-----------2-----------|--2-----------2-----------|
-----2-----2-----2-----2--|-----2-----2-----2-----2--|
--------4-----------4-----|--------4-----------4-----|
--------------------------|--------------------------|

LA       FA#m
La gente ya no siente miedo,
MI          RE         MI
las sombras tienen mil colores,
LA        FA#m
el viento barre los problemas
MI       RE              MI
y en las pistolas crecen flores.


FA#m         RE        LA (lick 1*)
Y es que es tan alucinante
MI         RE        LA  (lick 1)
que hace días que no duermo.
RE                  FA#m
Por si acaso al despertarme
MI
veo que todo ha sido un sueño.

Intro 2: todo igual, salvo en la última estrofa, donde Uoho toca:

-----------------------------|---------------------|
--12b---------12--10---------|---------------------|
----------------------11--9--|---------------------|
-----------------------------|---------------------|
-----------------------------|--12~----------------|
-----------------------------|---------------------|

LA     FA#m
Porque nacemos indefensos
MI      RE            MI
nos dan un nudo en el ombligo,
LA        FA#m
luego nos quitan nuestros sueños
MI    RE              MI
y nos confunden en el camino.

Guitarra 2: Arpegio

LA        FA#m
Maldigo a todos esos locos
MI          RE       MI
que quieren gobernar la vida
LA      FA#m
sin las palabras del poeta
MI    RE            MI
y sin las manos del artista.


Estribillo 2: Igual

Intro de nuevo (en vez de tocar las dos notas seguidas, mejor tócalas
alternando el golpeo de la púa. En este caso, la melodía se oye
un poco más bajo.

Solo:

----------------------------------|
--10--10--10--10--10--10--10--10--|
---9---9---9---9---9---9---9---9--|
----------------------------------|
----------------------------------|
----------------------------------|

--------------------------|--------------------------|
--7--7--7--7--7--7--7--7--|--5--5--5--5--5--5--5--5--|
--6--6--6--6--6--6--6--6--|--4--4--4--4--4--4--4--4--|
--------------------------|--------------------------|
--------------------------|--------------------------|
--------------------------|--------------------------|

--------------------------|
--3--3--------2-----0-----|  (2 veces)
--2--2--x--x--2-----2-----|
--------------------------|
--------------------------|
--------------------------|

Estribillo 3: igual.

Acabamos tocando el lick del estribillo dos veces y FIN.

*lick 1:
------------------------|--------------------------|
------------------------|--------------------------|
--2---------------------|--------------------------|
--2------------2--------|-----2-----------2--------|
--0------0--4-----------|-----0-----0--4-----4--0--|
------------------------|--------------------------|
Calificar esta versión:
Aviso: Este fichero es trabajo propio de su transcriptor y representa su interpretación personal de la canción. El material contenido en esta página es para exclusivo uso privado, por lo que se prohibe su reproducción o retransmisión, así como su uso para fines comerciales.
Más versiones de Alucinante, Platero Y Tú
Alucinante
acordes
Alucinante
tablatura
Descubre más canciones de Platero Y Tú