A Un Tipo Listo, Platero Y Tú (tablatura)

Autor: Anónimo | 29384 visualizaciones

+ Tabulados de made in spain!                   +
+ [http://mades.kaos.es]                        +
+++++++++++++++++++++++++++++++++++++++++++++++++

NOTA:   la version que escuche para sacar esta canci¢n es la que tocan
        en directo (en el "a pelo", vamos), por lo que puede que halla
        ligeras variaciones con la versi¢n de estudio.

Empezamos...

El bajo se puede emular tal que asi:
e |----------------|
B |----------------|
G |----------------|
D |----------------|
A |-2---2---2---2-0|
E |----------------|

Las notas para la introduccion: 
      D5    A5    B5  x3   D5    A5    G5    A5
E |-------------------||-----------------------------------|
B |-------------------||-----------------------------------|
G |*--7-----2-----4--*||---7-----2-----------2-------------|
D |*--7-----2-----4--*||---7-----2-----5-----2-------------|
A |---5-----0-----2---||---5-----0-----5-----0-------------|
e |-------------------||---------------3-------------------|

Empieza la cosa en serio:
      B5    D5    A5    D5    A5
e |-------------------------------|
B |-------------------------------|    Tocar 6 veces 
G |---4-----7-----------7---------|    empezando a cantar
D |---4-----7-----7-----7-----7---|    a la 3era.
A |---2-----5-----7-----5-----7---|    
E |---------------5-----------5---|    

Estribillo:
                 G5          A5          B5              B5       x3
e |----------------------------------------------------------------|
B |----------------------------------------------------------------|
G |*--------------------------------------------------------------*|
D |*-------------5-----------7-----------9---------------9--------*|
A |--5-----------5-----------7-----------9---------------9---------|
E |------7---5---3-3-3-3-3-3-5-5-5-5-5-5-7---5-7-5-7---5-7---5-7-5-|
                   P.M......|  P.M......|

e |------------------------------------------|---------------------|
B |------------------------------------------|---------------------|
G |------------------------------------------|---------------------|
D |--------------5-----------2-----------4---|---------------------|
A |--5-----------5-----------2-----------4---|---------------------|
E |------7---5---3-3-3-3-3-3-0-0-0-0-0-0-2---|0-2-0-2--0-2-0-2-0-2-|
                   P.M......|  P.M......|
Lo ultimo se hace unas pocas de veces y entonces se pasa al ritmo
principal mientras suena el solo.
El Fito vuelve a cantar y se repite lo anterior.

La guitarra ritmica calla y el bajo toma el mando.
Entonces suena esto:
        ~~~~~~~   ~~~~~~~  ~~~~~~~  ~~~~~~~
e |-----------------------------------------|
B |----5-------5----------------------------|  
G |*-7-----------7------7-6------6-7-------*|
D |*---------------------------------------*| 
A |-----------------------------------------| 
E |-----------------------------------------| 
                                               
Y luego suena esto otro:
                    ~~~~~~~
e |-------------------------||  Esto es doblado en la escala aguda (creo 
B |--5-6-5---5-6-5----------||  que se dice asi, 12 trastes arriba)
G |*-------7-------7-------*||
D |*-----------------------*||
A |-------------------------||
E |-------------------------||

      Los punteos no los tengo pero ya me pondre un dia que reuna paciencia.
Calificar esta versión:
Aviso: Este fichero es trabajo propio de su transcriptor y representa su interpretación personal de la canción. El material contenido en esta página es para exclusivo uso privado, por lo que se prohibe su reproducción o retransmisión, así como su uso para fines comerciales.