Pervert Pop Song, Plastilina Mosh (tablatura)

Autor: bandin | 46393 visualizaciones



intro
1--9--9----9--9--9------11--11----11--11--11-
2--11-11---9--9--9------11--11----13--13--13-
3--11-11---11-11-11-----13--13----13--13--13-
4--9--9----11-11-11-----13--13----11--11--11-
5--9--9----9--9--9------11--11----11--11--11-
6--9--9----9--9--9------11--11----11--11--11-X-4

en la ultima vez se le toka mas veces hacia abajo en el ultimo acorde

coro:
castigame se qe me eh portado mal divertete.... 
1--9--9----9--9--9------11--11----11--11--11-
2--11-11---9--9--9------11--11----13--13--13-
3--11-11---11-11-11-----13--13----13--13--13-
4--9--9----11-11-11-----13--13----11--11--11-
5--9--9----9--9--9------11--11----11--11--11-
6--9--9----9--9--9------11--11----11--11--11-

estrofa
te qiero igual i no se ni como awantar...
1-----------------------
2-----------------------
3-----------------------
4--2--2--6-6--8-8--9--8-
5--2--2--6-6--8-8--9--8-
6--0--0--4-4--6-6--7--6-X-4

coro:
castigame se qe me eh portado mal divertete.... 
1--9--9----9--9--9------11--11----11--11--11-
2--11-11---9--9--9------11--11----13--13--13-
3--11-11---11-11-11-----13--13----13--13--13-
4--9--9----11-11-11-----13--13----11--11--11-
5--9--9----9--9--9------11--11----11--11--11-
6--9--9----9--9--9------11--11----11--11--11-

estrofa:
y me retengo con tus ojos cristalinos.. 

1-----------------------
2-----------------------
3-----------------------
4--2--2--6-6--8-8--9--8-
5--2--2--6-6--8-8--9--8-
6--0--0--4-4--6-6--7--6-X-4

LEE LO  QE DIGO ESTO ES FACIL.... ( no lleva nada)

coro:
catigame ( no lleva nada)

asta el minuto 2:30
1-------------------------------------------
2-------------------------------------------
3-------------------------------------------
4-3--3----4--4--4-----6--6---8--8--8--------
5-3--3----4--4--4-----6--6---8--8--8--------
6-1--1----2--2--2-----4--4---6--6--6-------- X 4
intermedio :

1-99-11-8---99-11-8---99-11-8---99-11-8--11---------------------
2---------------------------------------------------------------
3---------------------------------------------------------------

min 3:00
1--9--9----9--9--9------11--11----11--11--11-
2--11-11---9--9--9------11--11----13--13--13-
3--11-11---11-11-11-----13--13----13--13--13-
4--9--9----11-11-11-----13--13----11--11--11-
5--9--9----9--9--9------11--11----11--11--11-
6--9--9----9--9--9------11--11----11--11--11-X4

coro:

castigame se qe me eh portado mal divertete.... 
1--9--9----9--9--9------11--11----11--11--11-
2--11-11---9--9--9------11--11----13--13--13-
3--11-11---11-11-11-----13--13----13--13--13-
4--9--9----11-11-11-----13--13----11--11--11-
5--9--9----9--9--9------11--11----11--11--11-
6--9--9----9--9--9------11--11----11--11--11-



final 3:45
1--9--9----9--9--9------11--11----11--11--11-14-14-14
2--11-11---9--9--9------11--11----13--13--13-14-14-14
3--11-11---11-11-11-----13--13----13--13--13-13-13-13
4--9--9----11-11-11-----13--13----11--11--11-11-11-11
5--9--9----9--9--9------11--11----11--11--11-11-11-11
6--9--9----9--9--9------11--11----11--11--11-11-11-11


gracias la afinacion es normal  en algunos coros i estrofas ieva disto !!

el bajeoo es (lo sake con la guitarra)
4-------------------------------------------
5-------------------------------------------
6-5-5-5-5-5-5-5-5-4-4-4-4-4-4-4-4-2-2-2-2-2-2-2-2-1-1-1-1-1-1-1-1





Calificar esta versión:
Aviso: Este fichero es trabajo propio de su transcriptor y representa su interpretación personal de la canción. El material contenido en esta página es para exclusivo uso privado, por lo que se prohibe su reproducción o retransmisión, así como su uso para fines comerciales.
Más versiones de Pervert Pop Song, Plastilina Mosh
Pervert Pop Song
acordes
Pervert Pop Song
tablatura
Pervert Pop Song (ver 2)
tablatura
Descubre más canciones de Plastilina Mosh