Where Is My Mind, Pixies (acordes)

Autor: CHUCHO13K | 76548 visualizaciones

aamcsosmegsosm


 
Where Is My Mind? / Pixies 

Oohhhhhhhhhhhhhh... Stop

Guitarra 1: [Toca intro]
E C#m G#m  A [cejilla]
E C#m G#m  A [cejilla]

Gitarra 1 y 2: [Tocan Juntas]
E          C#m         G#m          A 
Ooh Ooh Ooh....
E          C#m         G#m          A 
Ooh Ooh Ooh....

E                                  C#m                                               G#m              A 
   With your feet in the air and your head on the ground
E                      C#m    G#m    A 
   Try this trick and spin it….Yeah,
E                    C#m              G#m
  Your head will collapse but there's nothing in it
                    A 
And you'll ask yourself

Guitarra 1: [Toca Coro]

E           C#m
Where is my mind?
G#m                 A 
   Where is my mind?
E           C#m         G#m  A        E  C#m  G#m  A 
Where is my mind?
E   G#m        A                     Am         
Way out in the water see it swimmin'

Gitarra 1 y 2: [Tocan Juntas]

e|---4---4---4---4---4---4-----------------| 
B|-5---5---5---5---4---4---5-4-5-4-5-4-5-4-| 

E             C#m            G#m      A 
I was swimmin' in the Carribean
E              C#m    G#m          A 
  Animals were hiding behind the rock
E                    C#m            G#m                              A 
  Except the little fish but they told me, he swears tryin' to talk to me to me to me




Guitarra 1: [Toca coro]

E           C#m
Where is my mind?
G#m                 A 
Where is my mind?
E           C#m   G#m  A        E  C#m  G#m  A 
Where is my mind?
E   G#m        A            Am         
Way out in the water see it swimmin'


Solo:
E||--------------------------------------------|
B||--9b--r-9b--r-------------------------810---|
G||--9b--r-9b--r--9b--9r-9-9-7----7---9--------|
D||----------------------------9---------------|
A||--------------------------------------------|
E||--------------------------------------------|
                                 
E||--------------------------------------------|
B||--7-----7-----------------------------------|
G||--9b--r-9b--r--9b--9r-9-9-7-7----7--9--7----|
D||------------------------------9-----------9-|
A||--------------------------------------------|
E||--------------------------------------------|
    
E||--------10-12-12-12b-r-13b--r-13b--r-13b--r-----|
B||-10-12------------------------------------------|
G||------------------------------------------------|
D||------------------------------------------------|
A||------------------------------------------------|
E||------------------------------------------------|
 |
E||-------------10---12b--r-12b--r-12b--r-12b--r---|
B||-----7-10-12------------------------------------|
G||-7-9--------------------------------------------|
D||------------------------------------------------|
A||------------------------------------------------|
E||------------------------------------------------|

E                                  C#m                                           G#m              A 
   With your feet in the air and your head on the ground
E                      C#m    G#m    A 
   Try this trick and spin it….Yeah,
E                    C#m              G#m
  Your head will collapse but there's nothing in it
           A 
And you'll ask yourself


Guitarra 1: [Toca coro]

E           C#m
Where is my mind?
G#m                 A 
   Where is my mind?
E           C#m   G#m  A        E  C#m  G#m  A 
Where is my mind?
E   G#m        A            Am         
Way out in the water see it swimmin'


Guitarra 1 y 2: [Tocan Juntas]
E          C#m         G#m          A 
Ooh Ooh Ooh....
E          C#m         G#m          A 
Ooh Ooh Ooh....
----------------------------------------------------------------------------------------------------------

Bajo:

Riff principal [Intro]
G|---------------------------------|
D|---------------------------------|
A|---------4-4-4-4---------0-0-0-0-|
E|-0-0-0-0---------4-4-4-4---------|

Intro: 2x; entra con la Guitarra 2
Versos: 1 vez a cada vez repetir dos riffs
Coros 1: 3x; repetido dos riffs
Otras partes: siempre acompaña “ E C#m G#m A ”

Riff 1
G|-------------------------------------|
D|-------------------------------------|
A|-------------------------------------|
E|-0-0-0-0-0-4-4-4-4-4-5-5-5-5-5-5-5-5-|
Toca la última frase del Coro [“Way out in...”], acompañando los acordes de Guitarras.

Solo
G|---------------------------------|
D|---------------------------------|
A|---------------------------------|
E|-4-----2-2-2-2-2-2-2-2-2-2-2-2-2-|

Interlúdio: Acompaña a las guitarras cuando el coro acaba.
Solo: 3x



Acordes de Guitarra:
                                               
                           E
e||-------|-------|--------|
B||-------|-------|--------|
G||--1----|----3--|--------|
D||-------|--2----|--------|
A||-------|-------|--------|
E||-------|-------|--------|

                           C#m 
e||--1-----|-------|--------|
B||--1-----|-2-----|--------|
G||--1-----|-------|----4---|
D||--1-----|-------|--3-----|
A||--1-----|-------|--------|
E||--1-----|-------|--------|
       Traste4

                          G#m 
e||--1-----|-------|--------|
B||--1-----|-------|--------|
G||--1-----|-2-----|--------|
D||--1-----|-------|-----4--|
A||--1-----|-------|--3-----|
E||--1-----|-------|--------|
       Traste4


                          A [cejilla] 
e||--1-----|-------|--------|
B||--1-----|-------|--------|
G||--1-----|-2-----|--------|
D||--1-----|-------|-----4--|
A||--1-----|-------|--3-----|
E||--1-----|-------|--------|
       Traste5
*Todos los acordes de A [la] se tocan con cejilla.


E [Cejilla] 
\______/         
4OOOOOO           
 ||||O|            
 ||O|||            
 |O||||           

 E  =MI                      

 





Calificar esta versión:
Aviso: Este fichero es trabajo propio de su transcriptor y representa su interpretación personal de la canción. El material contenido en esta página es para exclusivo uso privado, por lo que se prohibe su reproducción o retransmisión, así como su uso para fines comerciales.