Hey You, Pink Floyd (tablatura)

Autor: jose_m | 35344 visualizaciones

CAPO 3 
INTRO: 
e--------0-----0----------0-----0----------2-----2----------2-----2--- 
B--4----------------4----------------2-------3--------2-------3------- 
G------6---6-----6------6---6-----6------4-----4---4------4-----4---4- 
D----6-------6--------6-------6--------4----------------4------------- 
A--------------------------------------------------------------------- 
E--------------------------------------------------------------------- 
            
-------0-----0----------0-----0----------2-----2-----------2-----2-0-- 
-4----------------4-------6--------2-------3---------2-------3-------- 
-----6---6-----6------6-----6---6------4-----4---4-------4-----4------ 
---6-------6--------6----------------4-----------------4-------------- 
----------------------------------------------------------------------
---------------------------------------------------------------------- 
            
--------2------ 
--2-------3---- 
------4-------- 
----4---------- 
--------------- 
--------------- 
     Hey                  
         
VERSO:                                                    
--------0-----0----------0-----0----------0-----0--- 
--4----------------4----------------4-------4-----0- 
------6---6-----6------6---6-----6------6----------- 
----6-------6--------6-------6--------6-------6----- 
---------------------------------------------------- 
---------------------------------------------------- 
  you,             Out there in the cold, getting lonely getting cold, Can  
            
--------4-------4--------4-----4----------0-----0----------0-----0--- 
--4---4-----4------4---4---4-----0--4----------------4--------------- 
----------4---4--------------4----------6---6-----6------6---6-----6- 
----6----------------6----------------6-------6--------6-------6----- 
--------------------------------------------------------------------- 
--------------------------------------------------------------------- 
 you feel me                    Hey  you,               Standing in the 
         aisles with itchy 
   
--------0-----0----------4-----4----------4-----4----------2-----2--- 
--4-------------0--4---4---4-----4--4---4---4-----4--2-------4------- 
------6---6------------------4----------------4----------4-----4---4- 
----6-------6--------6----------------6----------------4------------- 
--------------------------------------------------------------------- 
--------------------------------------------------------------------- 
feet and fasing smiles can you feel me?                Hey, you     don't 
   
--------2-----2----4-----------0--------0-----0----------0-----0--- 
--2-------4-----0--5---5-4--------2---2---2-----2--2---2---2-----0- 
------2-----4------4-4-------4------2-------2--------2-------2----- 
----4----------------------4--------------------------------------- 
------------------------------------------------------------------- 
------------------------------------------------------------------- 
help them to bury the light. 
            
--------4-----4----------2-----2----------0-----0----------0-----0--- 
--4---4---4-----4--2---2---2-----0--4----------------4--------------- 
------------4----------------2----------6---6-----6------6---6-----6- 
----6----------------4----------------6-------6--------6-------6----- 
--------------------------------------------------------------------- 
--------------------------------------------------------------------- 
 Don't give in             without a fight. 
            
---------2-----2----------2--- 
--2--------3--------2-------3- 
-------4-----4---4------4----- 
-----4----------------4------- 
------------------------------ 
------------------------------ 
 
Calificar esta versión:
Aviso: Este fichero es trabajo propio de su transcriptor y representa su interpretación personal de la canción. El material contenido en esta página es para exclusivo uso privado, por lo que se prohibe su reproducción o retransmisión, así como su uso para fines comerciales.
Más versiones de Hey You, Pink Floyd
Hey You
acordes
Hey You
tablatura
Descubre más canciones de Pink Floyd