Goodbye Blue Sky, Pink Floyd (tablatura)

Autor: ThE LiZaRd kInG | 20864 visualizaciones

TUNING: D A D G B E

 |-----------------|-----------------|-----------------|
 |-----------------|-----------------|-----------------|
 |-------0---------|-------0---------|-------0---------|
 |---4-------4---4-|---4-------4---4-|---4-------4---4-|
 |-----5-------5---|-----5-------5---|-----5-------5---|
 |-0-------0-------|-0-------0-------|-0-------0-------|

 |----------------|-----------------|
 |----------------|-----------------|
 |------0---------|---5---5-------4-|
 |---4----4-2-----|---5---5-------4-|
 |-----5------3p2-|-0---------------|
 |-0--------------|-----0---0---0---|

|---------|-----------------|---------|-----------------|-----------------|
|---------|-----------------|---------|-----------------|-----------------|
|-4-------|---5---5-------4-|-4-------|---5---5-------4-|---4------4-5-6--|
|-4-------|---5---5-------4-|-4-------|---5---5-------4-|---4------4-5-6--|
|---------|-----------------|---------|-----------------|-----------------|
|---0-0-0-|-0---0---0---0---|-0-0-0-0-|-0---0---0---0---|-0---0-----------|
                                        Repeat x3
|-----------------|-----------------||-------------------|-------------------|
|-----------------|-----------------||-------------------|-------------------|
|-----0-------0---|-----0-------0---||.---11---9-------7-|-----6---6h7p6p7---|
|---4---4---4---4-|---4---4---4---4-||.------------------|-------------------|
|-5-------5-------|-5-------5-------||-------------------|-------------------|
|-----------------|-----------------||--0----0---0---0---|-0-0---0---------0-|

 |-----------------|------------------|
 |-----------------|------------------|
 |-----0-------0---|-----0-------0---.|
 |---4---4---4---4-|---4---4---4---4-.|
 |-2-------2-------|-2-------2--------|
 |-----------------|------------------|

|-----------------|-----------------|-----------------|-----------------|
|-----------------|-----------------|-----------------|-----------------|
|---5---5---5---5-|-4---------------|---5---5---5---5-|-4---------------|
|---5---5---5---5-|-4---------------|---5---5---5---5-|-4---------------|
|-----------------|-----------------|-----------------|-----------------|
|-0---0---0---0---|-0---0---0---0---|-0---0---0---0---|-0---0---0---0---|

|-----------------|-----------------|-----------------|-----------------|
|-----------------|-----------------|-----------------|-----------------|
|---5---5-------5-|-----4---4-4-4-4-|-----2---2-2-2-2-|-----0---0-0-0-0-|
|---5---5-------5-|-----4---4-4-4-4-|-----2---2-2-2-2-|-----0---0-0-0-0-|
|-----------------|-----------------|-----------------|-----------------|
|-0---0---0---0---|-0---0---0---0---|-0---0---0---0---|-0---0---0---0---|

|-----------------|-----------------|-----------------|-----------------|
|-----------------|-----------------|-----------------|-----------------|
|-----------------|-----------------|-----0-------0---|-----0-------0---|
|-----4---4-4-4-4-|---2---2-----0---|---4---4---4---4-|---4---4---4---4-|
|-----4---4-4-4-4-|---2---2---4---4-|-2-------2-------|-2-------2-------|
|-0-0---0---0-----|-0---0---0-------|-----------------|-----------------|
                                        Repeat x2
|-----------------|-----------------||-------------------|-------------------|
|-----------------|-----------------||-------------------|-------------------|
|-------0---------|-------0---------||.---11---9-------7-|-----6---6h7p6p7---|
|---4-------4---4-|---4-------4---4-||.------------------|-------------------|
|-----5---5---5---|-----5---5---5---||-------------------|-------------------|
|-0---------------|-0---------------||--0----0---0---0---|-0-0---0---------0-|

 |-----------------|------------------|
 |-----------------|------------------|
 |-----0-------0---|-----0-------0---.|
 |---4---4---4---4-|---4---4---4---4-.|
 |-2-------2-------|-2-------2--------|
 |-----------------|------------------|

|-----------------|-----------------|-----------------|-----------------|
|-----------------|-----------------|-----------------|-----------------|
|---5---5---5---5-|-4---4-----------|---5---5---5---5-|-4---4-----------|
|---5---5---5---5-|-4---4-----------|---5---5---5---5-|-4---4-----------|
|-----------------|-----------------|-----------------|-----------------|
|-0---0---0---0---|-0---0---0---0---|-0---0---0---0---|-0---0---0---0---|

 |-----------------|-----------------|-----------------|
 |-----------------|-----------------|-----------------|
 |---5---5-------5-|-----4---4-4-4-4-|---------4-5-6---|
 |-----------------|-----------------|-----------------|
 |-----------------|-----------------|-----------------|
 |-0---0---0---0---|-0---0---0---0---|-0---0---0---0---|

 |-----------------|-----------------|
 |-----------------|-----------------|
 |-----0-------0---|-----0-------0---|
 |---4---4---4---4-|---4---4---4---4-|
 |-5-------5-------|-5-------5-------|
 |-----------------|-----------------|

|-----------------|-----------------|-----------------|-----------------|
|-----------------|-----------------|-----------------|-----------------|
|-----------------|-----------------|-----------------|-----------------|
|---4---4---4---4-|---4---4---4---4-|---4---4---4---4-|--4----4---4---4-|
|-5---5---5---5---|-5---5---5---5---|-5---5---5---5---|-5---5---5---5---|
|-----------------|-----------------|-----------------|-----------------|

|-----------------|-----------------|-----------------|----------------------|
|---------------1-|---------------1-|---------------1-|----------------------|
|---------------0-|---------------0-|---------------0-|----------------------|
|---0---0---0---0-|---0---0---0---0-|---0---0---0---0-|---0---0--------------|
|-3---------------|-----------------|-----------------|---------3p2p0--------|
|-----------------|-----------------|-----------------|---------------3(b)-0-|

    Repeat to fade
 ||------------------|------------------||
 ||------------------|------------------||
 ||.-------0---------|-------0---------.||
 ||.---4-------4---4-|---4-------4---4-.||
 ||------5---5---5---|-----5---5---5----||
 ||--0---------------|-0----------------||
Calificar esta versión:
Aviso: Este fichero es trabajo propio de su transcriptor y representa su interpretación personal de la canción. El material contenido en esta página es para exclusivo uso privado, por lo que se prohibe su reproducción o retransmisión, así como su uso para fines comerciales.
Más versiones de Goodbye Blue Sky, Pink Floyd
Goodbye Blue Sky
tablatura
Goodbye Blue Sky
video guitarra
Descubre más canciones de Pink Floyd