Arnold Layne, Pink Floyd (bajo)

Autor: Molotov | 38020 visualizaciones

see tambn ya era ora
esto feu de oido pero creo q es muy apegadoa al de Waters califikn porfa...
chidalabanda...

Arnold Layne
Relics
Pink Floyd
Roger Waters
Modelo del bajo: Gibson Black-4 
                  Arnold Layne?
G-----------------------------------------
D-----------------------------------------
A-----------------------------------------
E---5-6-6-6-6-6-6-6-6---3-4-4-4-4-4-4-4-4-X6

They    suit  him fine
G------------------------------
D------------------------------
A--------3---------5?(6)-(7)---
E----3-------------------------
           
                 On the wall
G-----------------------------------------
D-----------------------------------------
A-----------------------------------------
E---5-6-6-6-6-6-6-6-6---3-4-4-4-4-4-4-4-4-X6
 
    he   got      it
G----------------------------------------------
D----------------------------------------------
A--------3---------5?(6)-(7)-------------------
E----3--------------------------4-4-4---3-3-3?


Oh Arnold Layne, it's not the same
it takes two to know, two to know, two to know, two to know
why can't you see

1:13
                Arnold Layne?
G-----------------------------------------
D-----------------------------------------
A-----------------------------------------
E---5-6-6-6-6-6-6-6-6---3-4-4-4-4-4-4-4-4-X4

G--------------------------------------------------
D--------------------------------------------------
A--------------------------------------------------
E?6-6-6-6-6-6-6-6-6-6-6---4-4-4-4-4-4-4-4-4-4-4-4?x2

                  Now he's caught         
G-----------------------------------------
D-----------------------------------------
A-----------------------------------------
E---5-6-6-6-6-6-6-6-6---3-4-4-4-4-4-4-4-4-X6

          He    ha  -    ted
G-------------------------------
D-------------------------------
A--------3---------5?--6--7-----
E----3--------------------------

Oh Arnold Layne, it's not the same
It takes two to know, two to know, two to know, two to know
Why can't you see?

G----------------------------------------------
D----------------------------------------------
A----------------------------------------------
E---(5)-(5)-(5)?(5)-(5)-(5)-5-6-6-6-6-6-6-6-6--

                  Arnold Layne? arnold layne
G-----------------------------------------
D-----------------------------------------
A-----------------------------------------
E---5-6-6-6-6-6-6-6-6---3-4-4-4-4-4-4-4-4-X6
Calificar esta versión:
Aviso: Este fichero es trabajo propio de su transcriptor y representa su interpretación personal de la canción. El material contenido en esta página es para exclusivo uso privado, por lo que se prohibe su reproducción o retransmisión, así como su uso para fines comerciales.
Más versiones de Arnold Layne, Pink Floyd
Arnold Layne
acordes
Arnold Layne
bajo
Descubre más canciones de Pink Floyd