Te Entiendo, Pignoise (tablatura) (ver 2)

Autor: wilmxn | 39635 visualizaciones



1-----------------------------------------------------
2-----------------------------------------------------
3--6--------------------------------------------------
4-----7----9---7------------------REPITE 8 VECES------
5-----------------------------------------------------
6-----------------------------------------------------


1-----------------------------------------------------
2-----------------------------------------------------
3-----------------------------------------------------
4---7------------------------------REPITE 4 VECES-----
5--------9----11--------------------------------------
6-----------------------------------------------------


1-----------------------------------------------------
2-----------------------------------------------------
3---7-------------------------------------------------
4---------9---11--------------------REPITE 4 VECES----
5-----------------------------------------------------
6-----------------------------------------------------


1-----------------------------------------------------
2-----------------------------------------------------
3-----------------------------------------------------
4--9---8----11-----------------------REPITE 4 VECES---
5-----------------------------------------------------
6-----------------------------------------------------





Calificar esta versión:
Aviso: Este fichero es trabajo propio de su transcriptor y representa su interpretación personal de la canción. El material contenido en esta página es para exclusivo uso privado, por lo que se prohibe su reproducción o retransmisión, así como su uso para fines comerciales.
Más versiones de Te Entiendo, Pignoise
Te Entiendo
acordes
Te Entiendo (ver 2)
acordes
Te Entiendo
tablatura
Te Entiendo (ver 2)
tablatura
Te Entiendo
bateria
Descubre más canciones de Pignoise