Sin Ti, Pignoise (acordes)

Autor: xexe | 39201 visualizaciones



-----------------------------------
-----------------------------------
-----------------------------------
--0-0-0-0-0-0-0-0------------------
------------------4-4-4-4-4-4-4-4--
-----------------------------------

-----------------------------------
-----------------------------------
-----------------------------------
-----------------------------------
--2-2-2-2-2-2-2-2------------------
------------------3-3-3-3-3-3-3-3--
                         si al despe

-----------------------------------
-----------------------------------
-----------------------------------
--0-0-0-0-0-0-0-0------------------
------------------4-4-4-4-4-4-4-4--
-----------------------------------
  gar  sigo en el suelo   siempre tu

-----------------------------------
-----------------------------------
-----------------------------------
-----------------------------------
--2-2-2-2-2-2-2-2------------------
------------------3-3-3-3-3-3-3-3--
  vuelas en mi lugar     soy el don

-----------------------------------
-----------------------------------
-----------------------------------
--0-0-0-0-0-0-0-0------------------
------------------4-4-4-4-4-4-4-4--
-----------------------------------
  Juan  de los tropiezos    es el co

-----------------------------------
-----------------------------------
-----------------------------------
-----------------------------------
--2-2-2-2-2-2-2-2------------------
------------------3-3-3-3-3-3-3-3--
  mienzo  de mi final

ReM        LaM   Sim
y creo que muero te espero
LaM
y estas tan lejos
  ReM     LaM    SiM   LaM
yo me desespero y tu no estas

ReM                LaM
sigo llorando y tu  que dices que te vas

Sim               SolM
se apagara la luz  y nunca volveras

ReM                   LaM
yo me he quedado aqui  solo quiero gritar

Sim     SolM     ReM
nada me queda sin ti

-----------------------------------
-----------------------------------
-----------------------------------
--0-0-0-0-0-0-0-0------------------
------------------4-4-4-4-4-4-4-4--
-----------------------------------

-----------------------------------
-----------------------------------
-----------------------------------
-----------------------------------
--2-2-2-2-2-2-2-2------------------
------------------3-3-3-3-3-3-3-3--
                          soy un i

-----------------------------------
-----------------------------------
-----------------------------------
--0-0-0-0-0-0-0-0------------------
------------------4-4-4-4-4-4-4-4--
-----------------------------------
  man    para las penas    nada me

-----------------------------------
-----------------------------------
-----------------------------------
-----------------------------------
--2-2-2-2-2-2-2-2------------------
------------------3-3-3-3-3-3-3-3--
 llena si tu no estas       mi cora

-----------------------------------
-----------------------------------
-----------------------------------
--0-0-0-0-0-0-0-0------------------
------------------4-4-4-4-4-4-4-4--
-----------------------------------
 zon  que se enve nena     vena por

-----------------------------------
-----------------------------------
-----------------------------------
-----------------------------------
--2-2-2-2-2-2-2-2------------------
------------------3-3-3-3-3-3-3-3--
 vena     hasta matar


ReM        LaM   Sim
y creo que muero te espero
LaM
y estas tan lejos
  ReM     LaM    SiM   LaM
yo me desespero y tu no estas

ReM                LaM
sigo llorando y tu  que dices que te vas

Sim               SolM
se apagara la luz  y nunca volveras

ReM                   LaM
yo me he quedado aqui  solo quiero gritar

Sim     SolM     ReM
nada me queda sin ti

-----------------------------------
-----------------------------------
-----------------------------------
--0-0-0-0-0-0-0-0------------------
------------------4-4-4-4-4-4-4-4--
-----------------------------------

-----------------------------------
-----------------------------------
-----------------------------------
--0-0-0-0-0-0-0-0-0-0-0-0-0-0-0-0--
-----------------------------------
-----------------------------------


-----------------------------------
--3-----3-----3--------------------
----------0-0-------2-0-0----------
----4-4---------4-4-------4-0------
-----------------------------------
-----------------------------------

-----------------------------------
--3-----3--------------------------
----------0-0-2---0----------------
----4-4---------------4------------
-----------------------------------
-----------------------------------


ReM                LaM
sigo llorando y tu  que dices que te vas

Sim               SolM
se apagara la luz  y nunca volveras

ReM                   LaM
yo me he quedado aqui  solo quiero gritar

Sim               SolM
se apagara la luz  y nunca volveras

ReM                LaM
sigo llorando y tu  que dices que te vas

Sim               SolM
se apagara la luz  y nunca volveras

ReM                   LaM
yo me he quedado aqui  solo quiero gritar

Sim     SolM           ReM     LaM
nada me queda sin ti...

Sim     SolM           ReM     LaM
nada me queda sin ti...
Sim     SolM           ReM     LaM
nada me queda sin ti...

Sim     SolM           ReM
nada me queda sin ti...





Calificar esta versión:
Aviso: Este fichero es trabajo propio de su transcriptor y representa su interpretación personal de la canción. El material contenido en esta página es para exclusivo uso privado, por lo que se prohibe su reproducción o retransmisión, así como su uso para fines comerciales.
Más versiones de Sin Ti, Pignoise
Sin Ti
acordes
Sin Ti (ver 2)
acordes
Descubre más canciones de Pignoise