Mi Viejo, Piero (tablatura)

Autor: Anónimo | 46801 visualizaciones



Aqui les traigo mi transcripcion...ya que se viene el dia del padre xP

Es un buen ti-po mi vie-jo
quean da so-lo yes pe-ran-do
tie--ne la tris-te-za lar-ga
de tan-to ve-nir an-dan-do . . .
E------------|--------------|------------|------------|
B-1---1---0--|--------------|----0-0-0-1-|----0-0-0-1-|
G--2---2---1-|-2----2----0--|-1-2---2---2|-1-2---2---2|
D---2---2----|--3-0--3-0--2-|------------|------------|
A------------|--------------|------------|------------|
E------------|--------------|------------|------------|

Yo lo mi-ro des-de le-jos
pe-ro so-mos tan dis-tin-tos
es que cre-ció con el si-glo
y tie-nehis to-rias sin tiem-po - o . . .
Vie-jo, mi que-ri-do vie-jo
E------------|--------------|------------0-|--0-1-1-0-3-0-|---------------|
B-1---1---0--|--------------|-0-1-3-3-1-0-1|-3-------3---3|-0-0-0-0-3-0-1-|
G--2---2---1-|-2----2----0--|--------------|--------------|--------------2|
D---2---2----|--3-0--3-0--2-|--------------|--------------|---------------|
A------------|--------------|--------------|--------------|---------------|
E------------|--------------|--------------|--------------|---------------|

aho-ra ya ca-mi--nas ler-do
co-mo per-do-nan-doel tiem-po
yo soy tu san-gre mi vie-jo
soy tu si-len-cioy tu tiem-po - o
E--------3-3-0-|---------------|-0-0-0-0-|-0-0-0-0---|
B-3-3-3-3-----1|-0-0-0-0-3-0-1-|--3-3-3-1|--3-3-3-1-0|
G--------------|--------------2|---------|-----------|
D--------------|---------------|---------|-----------|
A--------------|---------------|---------|-----------|
E--------------|---------------|---------|-----------|

El tie-ne los o--jos bue-nos
yu na fi-gu-ra pe-sa-da
lae dad se le vi-noen ci-ma
sin car-na-val, ni com-par-sa . .
E------------|--------------|------------|------------|
B-1---1---0--|--------------|----0-0-0-1-|----0-0-0-1-|
G--2---2---1-|-2----2----0--|-1-2---2---2|-1-2---2---2|
D---2---2----|--3-0--3-0--2-|------------|------------|
A------------|--------------|------------|------------|
E------------|--------------|------------|------------|

Yo ten-go los a--ños nue-vos
yel hom-bre los a--ños nue-vos
el do-lor lo lle-va den-tro
con tran-ví-ay vi-no tin-to - o . . .
Vie-jo, mi que-ri-do vie-jo
E------------|--------------|------------0-|--0-1-1-0-3-0-|---------------|
B-1---1---0--|--------------|-0-1-3-3-1-0-1|-3-------3---3|-0-0-0-0-3-0-1-|
G--2---2---1-|-2----2----0--|--------------|--------------|--------------2|
D---2---2----|--3-0--3-0--2-|--------------|--------------|---------------|
A------------|--------------|--------------|--------------|---------------|
E------------|--------------|--------------|--------------|---------------|

aho-ra ya ca-mi--nas ler-do
co-mo per-do-nan-doel tiem-po
yo soy tu san-gre mi vie-jo
soy tu si-len-cioy tu tiem-po - o
E--------3-3-0-|---------------|-0-0-0-0-|-0-0-0-0---|
B-3-3-3-3-----1|-0-0-0-0-3-0-1-|--3-3-3-1|--3-3-3-1-0|
G--------------|--------------2|---------|-----------|
D--------------|---------------|---------|-----------|
A--------------|---------------|---------|-----------|
E--------------|---------------|---------|-----------|

yo, yo soy tu san-gre mi vie-jo
soy tu si-len-cioy tu tiem-po - o . . . etc
E-0-0-0-0-0-|-0-0-0-0---|
B----3-3-3-1|--3-3-3-1-0|
G-----------|-----------|
D-----------|-----------|
A-----------|-----------|
E-----------|-----------|

E7 Dm
Es un buen tipo mi viejo
G7 Cmaj7 E7
que anda solo y es perando
Am E7
tiene la tristeza larga
Am G
de tanto venir andando . . .

E7 Dm
Yo lo miro desde lejos
G7 Cmaj7 E7
pero somos tan distintos
Am
es que creció con el siglo
G7 C E7
y tiene historias sin tiempo - o . . .

Am G7
Viejo, mi querido viejo
C E7
ahora ya caminas lerdo
Am Em7 E7
como perdonando el tiempo
Am E7
yo soy tu sangre mi viejo
Am G7
soy tu silencio y tu tiempo.. o

E7 Dm
El tiene los ojos buenos
G7 Cmaj7 E7
y una figura pesada
Am E7
la edad se le vino encima
Am G
sin carnaval, ni comparsa . . .

E7 Dm
Yo tengo los años nuevos
G7 Cmaj7 E7
y el hombre los años viejos
Am
el dolor lo lleva dentro
G7 C E7
con tranvía y vino tinto o . . .

Am G7
Viejo, mi querido viejo
C E7
ahora ya caminas lerdo
Am E7
como perdonando el tiempo
Am E7
yo soy tu sangre mi viejo
Am G7
soy tu silencio y tu tiempo  o
Am E7
yo, yo soy tu sangre mi viejo
Am G7
soy tu silencio y tu tiempo  o . . . etc

cualquier duda escribirme a mi correo: [email protected]
Salu2.





Calificar esta versión:
Aviso: Este fichero es trabajo propio de su transcriptor y representa su interpretación personal de la canción. El material contenido en esta página es para exclusivo uso privado, por lo que se prohibe su reproducción o retransmisión, así como su uso para fines comerciales.
Más versiones de Mi Viejo, Piero
Mi Viejo
acordes
Mi Viejo (ver 2)
acordes
Mi Viejo (ver 3)
acordes
Mi Viejo
tablatura
Mi Viejo
teclado
Mi Viejo
video guitarra
Descubre más canciones de Piero