Baby I Love You Way, Peter Frampton (acordes)

Autor: xxblackxpinkxx | 29501 visualizaciones

ambmcd7e7emf7g


"Baby, I love your way", Peter Frampton
__________________________________________
*Transcripción por: Sebastián Ar.
*MSN/email de consulta: playing.the.angel_@hotmail.com
*Buenos Aires, 2009.
___________________________________________

    G                Bm          Em                C        F7
 SHADOWS GROW SO LONG BEFORE MY EYES, AND THEY'RE MOVING, ACROSS THE PAGE...
    G            Bm            Em   C                   F7
 SUDDENLY!THE DAY TURNS INTO NIGHT, FAR AWAY, FROM THE CITY
     Bm         E7                Am          D7
 BUT DON'T, HESITATE, CAUSE YOUR LOVE, WON'T WAIT...


Estribillo:
1|----3----------2---------------------0-------0------------------------|
2|----0----------3---------------------1-------1------------------------|
3|----0----------2---------------------2-------0------------------------|
4|----0----------0---------------------2-------2------------------------|
5|----2--------------------------------0-------3------------------------|
6|----3-----------------------------------------------------------------|
         Oh     baby  I  love   your  way[everyday]
       wanna     tell you I love your way
           wanna be with you night and day

 
  G                  Bm                Em            C             F7
 MOON APPEARS TO SHINE, AND LIGHT THE SKY, WITH THE HELP, OF SOME FIREFLIES...
  G               Bm                  Em
 WONDER HOW THEY HAVE, THE POWER TO SHINE, SHINE, SHINE
         C         F7
 I CAN SEE THEM, UNDER THE PINE
     Bm         E7                Am          D7
 BUT DON'T, HESITATE, CAUSE YOUR LOVE, WON'T WAIT



Estribillo:
1|----3----------2---------------------0-------0------------------------|
2|----0----------3---------------------1-------1------------------------|
3|----0----------2---------------------2-------0------------------------|
4|----0----------0---------------------2-------2------------------------|
5|----2--------------------------------0-------3------------------------|
6|----3-----------------------------------------------------------------|
         Oh     baby  I  love   your  way[everyday]
       wanna     tell you I love your way
           wanna be with you night and day

 Repite tres veces más.





Calificar esta versión:
Aviso: Este fichero es trabajo propio de su transcriptor y representa su interpretación personal de la canción. El material contenido en esta página es para exclusivo uso privado, por lo que se prohibe su reproducción o retransmisión, así como su uso para fines comerciales.