La Noria, Pereza (tablatura)

Autor: Anónimo | 22381 visualizaciones

Hola a tod@s!!!,bueno aqui está mi primera corrección,
espero que les guste, y a disfrutar de pereza!!!!


Para tocarla bien lo suyo son dos guitarras acústicas,
una que hará los acordes(Rubén) y otra(Leiva) los punteos
como la intro, el solo y el estribillo acompañando los acordes.

INTRO

Acordes:  RE | MI |re | mi |re | mi |re |la |
Punteo:
------------------------------------------
------------------------------------------
--------7--6---4---2--1--2--4--6----------
------------------------------------------
------------------------------------------
------------------------------------------  (X3)hay una pausa entre
                                             la 2º y la 3º vez

------------------------------------------
------------------------------------------
--------7--6---4---2--2-------------------
------------------------------------------
------------------------------------------
------------------------------------------


Acordes:  RE | MI |re | mi |re | mi |re |la |


FA#m                    MI
Que bueno oir tu voz hablandome tan cerca,
RE                      MI
que bien me encuentro solo con mirarte,
FA#m                    MI
toda una vida entera viendote pasar de largo
RE                      LA
ahora te tengo de verdad.


FA#m                    MI
Digo yo que estare dentro de uno de esos sueños
RE                     LA       MI
todo me sale esto no puede ser real
FA#m                 MI
que subidón es todo cierto estoy despierto,
RE                 LA
entonces me dejo llevar...


ESTRIBILLO:
----------------------
RE FA#m
 Girando como una noria,
RE FA#m
 girando como una noria,
RE  MI
 girando como una noria.
-----------------------
Punteo: Acordes:  re | mi |re | mi |re | mi |re |la |
------------------------------------------
------------------------------------------
--------7--6---4---2--1--2--4--6----------
------------------------------------------
------------------------------------------ (X3)hay una pausa entre
                                            la 2º y la 3º vez
------------------------------------------

--------------------------------3--0------
------------------------------------------
--------7--6---4---2--2-------------------
------------------------------------------
------------------------------------------
------------------------------------------

 FA#m                    MI
 Si me lo pides nena sabes que me voy de casa,
 RE                     LA       MI
 no te preocupes si no te lo pido yo,
 FA#m                    MI
 que aqui nada nos ata pisa la vida y arranca,
 RE                      LA
 esto no ha echo mas que empezar.


(ESTRIBILLO)
RE FA#m
 Girando como una noria,
RE FA#m
 girando como una noria,

 FA#m                    MI
 Nos fuimos en tu coche rumbo lejos de cualquiera,
 RE                     LA       MI
 se hizo de noche y nos dormimos mi amor,
 FA#m                    MI
 en una curva nos salimos de la carretera,
 RE                 LA
 te fuiste tu,¿por que no yo?.


(ESTRIBILLO)
RE FA#m
 Girando como una noria,
RE FA#m
 girando como una noria,
RE  MI
 girando como una noria.

Solo:

-----------9-----9-10-7---5--7-9-5--------2-5-------
-------7------7-------------------------------------
----------------------------------------------------
----------------------------------------------------
----------------------------------------------------
----------------------------------------------------

----10/12-12-12-12-9--7-9--7-9---10-7---5-7--9-5----
----------------------------------------------------
----------------------------------------------------
----------------------------------------------------
----------------------------------------------------
----------------------------------------------------

----2-5-------2/5----5------------------------------
----------------------------------------------------
----------------------------------------------------
----------------------------------------------------
----------------------------------------------------
----------------------------------------------------

(ESTRIBILLO)
RE FA#m
 Girando como una noria,
RE FA#m
 girando como una noria,
RE  MI
 girando como una noria.



LA             MI              FA#m
Los dias van pasando y tu no estas...
LA             MI              FA#m
los dias van pasando y tu no estas...
LA             FA#m           MI
la vida va pasando y tu no estas...
LA             FA#m           MI
los dias van pasando y tu no estas.
Calificar esta versión:
Aviso: Este fichero es trabajo propio de su transcriptor y representa su interpretación personal de la canción. El material contenido en esta página es para exclusivo uso privado, por lo que se prohibe su reproducción o retransmisión, así como su uso para fines comerciales.
Más versiones de La Noria, Pereza
La Noria
acordes
La Noria
tablatura
Descubre más canciones de Pereza