La Chica Del Tirso, Pereza (tablatura)

Autor: Anónimo | 26480 visualizaciones

Sploke

Tocar estos acordes asi:
  ______/     ______/
  |||||| Em7  ||||||F#dim
  |o||||      ======
  ||||o|      |o||||
  ||||||      ||o|o|

Intro:

e |-------------------|----------------------|
B |-------------------|----------------------|
G |----0-4-4---4--0---|----------------------|
D |--4-------4--4-----|-2-2h4-2--------------|
A |-------------------|----------------------|
E |-------------------|----------------------|


e |-------------------|----------------------|
B |-------------------|----------------------|
G |----0-4-4---4--0---|----------------------|
D |--4-------4--4-----|-2-2h4-2--------------|
A |-------------------|----------------------|
E |-------------------|----------------------|


e |-------------------|----------------------|
B |-------------------|----------------------|
G |----0-4-4---4--0---|----------------------|
D |--4-------4--4-----|-2-2h4-2--------------|
A |-------------------|----------------------|
E |-------------------|----------------------|

e |-------------------|----------------------|
B |-------------------|----------------------|
G |----0-4-4---4--0---|----------------------|
D |--4-------4--4-----|-2--2h4--2------------|
A |-------------------|----------------------|
E |-------------------|----------------------|


e |-------------------|----------------------|
B |-------------------|----------------------|
G |----0-4-4---4--0---|---------------3-2-0--|
D |--4-------4--4-----|-2-2h4-2-2-0-2--------|
A |-------------------|----------------------|
E |-------------------|----------------------|

Am         D
Vuelan palabras lentas,
G      D           Em  C
vuelan como un huracán
        D                Em  G  Em  Bm  Am
hacen manitas bajo la ciudad.
        D
Sigue soplando cerca,
  G   D          Em   C
sigue ya descansarás
           D              Em
voy tirandito, necesito gas.


       G         C           G   Em7
Bajo a todos los sitios a romper
C     Bm           Am
nunca te he pedido más
    D                        G    C
que cuando te enganches con aquel
   Bm      B     Em
me guardes un sorbito.

Intro

Am          D
Dicen las malas lenguas
  G    D            Em   C
hablas sola y comes mal
              D
todos echan monedas
     F#dim       Em
pero nadie se la lleva
     D          C
y la seda se convierte
      Bm         Am  B
en un papel de fumar
               Em
que se vuela y nada más.


       G         C           G   Em7
Bajo a todos los sitios a romper
C     Bm           Am
nunca te he pedido más
    D                        G    C
que cuando te enganches con aquel
   Bm      B     Em
me guardes un sorbito.


Am  Em  C  Em
F#dim  D  B  B  C


                   G
Días largos, besos guarros
   D             Em
se funden sin control
C
aeropuertos, vicios caros
D
son los restos del naufragio.


       G         C           G   Em7
Bajo a todos los sitios a romper
C     Bm           Am
nunca te he pedido más
    D                        G    C
que cuando te enganches con aquel
   Bm      B     Em
me guardes un sorbito,             [x2]

   Bm      B     Em
me guardes un sorbito.
Calificar esta versión:
Aviso: Este fichero es trabajo propio de su transcriptor y representa su interpretación personal de la canción. El material contenido en esta página es para exclusivo uso privado, por lo que se prohibe su reproducción o retransmisión, así como su uso para fines comerciales.
Más versiones de La Chica Del Tirso, Pereza
La Chica Del Tirso
acordes
La Chica Del Tirso
tablatura
Descubre más canciones de Pereza