Caramelo, Pereza (tablatura)

Autor: Anónimo | 20079 visualizaciones

Hola!!!!!!!!! Akí esoy yo con los solos de caramelo, la versión que
hay ya en la página me parece buena, así ke solo voy a poner los
tres solos que hace Pitu durante la canción.

Nada más empezar hace un solo (después del piano) que es este:


E |------------0-1-1-3--|--3-7-5--3-1--5-3--|
B |------0-1-3----------|-------------------|
G |--0/3----------------|-------------------|
D |---------------------|-------------------|
A |---------------------|-------------------|
E |---------------------|-------------------|

|------------0-1-1-3--|----------------------|
|------0-1-3----------|--3/4-3--1-3-1-----1--|
|--0/3----------------|-----------------2----|
|---------------------|----------------------|
|---------------------|----------------------|
|---------------------|----------------------|


El segundo solo es lo mismo que el primero pero cambiando el final:


E |------------0-1-1-3--|--3-7-5--3-1--5-3--|
B |------0-1-3----------|-------------------|
G |--0/3----------------|-------------------|
D |---------------------|-------------------|
A |---------------------|-------------------|
E |---------------------|-------------------|

|------------0-1-1-3--|---------------|
|------0-1-3----------|--5-3-1-----1--|
|--0/3----------------|----------2----|
|---------------------|---------------|
|---------------------|---------------|
|---------------------|---------------|


Y el último es el que hace antes del estribillo que canta al final:


E |--------------------|-----------------------------|
B |--------------------|-----------------------------|
G |--0-2---2-----------|---------------7-5-4--4/5/2--|
D |------4----0-2-2/5--|--2-3--0-2---2---------------|
A |--------------------|-----------------------------|
E |--------------------|-----------------------------|

|-------------3----------3--8--|---11/10-8--8/11-8--8--|
|--------3-3-----4/3-1-4-------|-----------------------|
|--2--5------------------------|-----------------------|
|------------------------------|-----------------------|
|------------------------------|-----------------------|
|------------------------------|-----------------------|


Weno creo k me han salido clavados al cd, pero igual hay algun fallo. Como
siempre, dudas o sugerencias a manu15paramo@hotmail.com
Por cierto, voy a mandar pronto la de yo solo quiero y la de quiero hacerlo
esta noche, y ya tengo casi a punto la de horóscopo, así ke igual pa la
próxima actualización de la página están

^_^ Dedicado a mi xica xk es mi caramelo preferido
Calificar esta versión:
Aviso: Este fichero es trabajo propio de su transcriptor y representa su interpretación personal de la canción. El material contenido en esta página es para exclusivo uso privado, por lo que se prohibe su reproducción o retransmisión, así como su uso para fines comerciales.
Más versiones de Caramelo, Pereza
Caramelo
acordes
Caramelo
tablatura
Descubre más canciones de Pereza