Beatles, Pereza (tablatura)

Autor: Anónimo | 16756 visualizaciones

Gracias a Diego k me paso los acordes, yo los puse en su lugar y saque
el solo k sta mu bien.
Lo de siempre... Lo k sea a mi mail: manu15paramo@hotmail.com

Intro: D


D             Bm
Todo lo haces mal
G           A
Controla un poco, corazón
D          Bm
Para los demás
G              A
Fuimos como un foco de calor


D                 Bm
Pero yo sé lo que hay
           F#m         A
Y estoy loco, tienes telaa
D               Bm
No me creo la mitad
         F#m        A
Tú tampoco, muérete ya


         A            A
C'est la vie, get the live


G                  D
Desde hace tiempo, si me permites
A       Bm     A G
Todo me sale genial
G                D
Me siento más cerca de los Beatles
A          Bm        A G
Que de tus discos de jazz
E  A
Síiii


Puente: D


D           Bm
Fuimos a bailar
G        A
El sitio no te convenció
D           Bm
Nada de brindar
G        A
Pero aún quedaba lo mejor


D                   Bm
Nos marchamos a una fiesta
          F#m        A
En su moto, en Barna todos tienen vespa
D                   Bm
Gente guapa, lo más cool de la foto
F#m      A
El chico no puede pasar


G                  D
Desde hace tiempo, si me permites
A       Bm     A G
Todo me sale genial
G                D
Me siento más cerca de los Beatles
A          Bm        A G
Que de tus discos de jazz


G                  D
Desde hace tiempo, si me permites
A       Bm    A G
Todo va fenomenal
G                  D              A7
Me sienta tan bien que no me invites


e |-------------------|----------------------|
B |-------------------|--12/10---------------|
G |-------------------|---------11/9---------|
D |--------0-2--2b4---|---------------12/9---|
A |--2---2------------|----------------------|
E |-------------------|----------------------|

e |---------|---------------------|
B |--9-8-7--|--7-10-7-------------|
G |---------|---------7-9-7--9v---|
D |---------|---------------------|
A |---------|---------------------|
E |---------|---------------------|

e |-------------|--------------|
B |-------------|--------------|
G |-------------|--------------|
D |-----8----8--|----8----9v---|
A |--9-----9----|--9---9-------|
E |-------------|--------------|


G                  D
Desde hace tiempo, si me permites
A       Bm     A G
Todo me sale genial
G                D
Me siento más cerca de los Beatles
A          Bm        A G
Que de tus discos de jazz


G                  D
Desde hace tiempo, si me permites
A       Bm    A G
Todo va fenomenal
G                  D              A7
Me sienta tan bien que no me invites


Puente: G - D - A


Bm          A         G    D
She's got a ticket to live
D         A
See don't care

e |--------------------|--7--|
B |--------------------|--7--|
G |--------------------|--7--|
D |--------------------|--7--|
A |--0--1--2--3--4--5--|-----|
E |--------------------|-----|
Calificar esta versión:
Aviso: Este fichero es trabajo propio de su transcriptor y representa su interpretación personal de la canción. El material contenido en esta página es para exclusivo uso privado, por lo que se prohibe su reproducción o retransmisión, así como su uso para fines comerciales.
Más versiones de Beatles, Pereza
Beatles
acordes
Beatles
tablatura
Descubre más canciones de Pereza