Aproximación, Pereza (tablatura)

Autor: Anónimo | 41420 visualizaciones

Intro:
        E---------------------
        B---------------------
        G-/11--/11--9---------
  X2    D-------------12-11---
        A---------------------
        E---------------------

        E--------------------------
        B----------------------12--
        G-/11--/11--9--------------
        D-------------12--11-11h12-
        A--------------------------
        E--------------------------

  D    A   D       G          D
Somos dos, Para que queremos más
  D   A  Bm       G
Pensamos,Antes de matarnos
D    A  D        G             D
Íbamos hacia el cielo y al compás
  D   A
Sabe Dios
Bm          G
Que pudo soltarnos
Gm
Que pudo soltarnos

Bm  Fm         G
Ardió el colchón
 D          G
Donde tu y yo
 G
Nos mojamos
G          A
Nuestros flacos huesos secos
   A
Tiritando de un amor tan prieto
  Bm        A               Em
Y dulce como no pensé que habría
 G               A
Algo tan dulce como tú

  G
Y esto es sólo una aproximación
 D
Sólo una aproximación
 Em   A        D
Sólo una aproximación
 G
Y esto es sólo una aproximación
 D
Sólo una aproximación
Em    A       D
Sólo una aproximación



D      A
Quiérenos
D       G        D
Al destino quiérenos
 D   A
Rezamos
Bm            G
Antes de acostarnos
D     A
Juntanos
D      G        D
Al camino juntanos
D    A
Otra vez
  Bm         G
Antes de matarnos

Bm  Fm         G
Ardió el colchón
D           G
Donde tu y yo
G
Empapamos
G          A
Nuestros flacos huesos secos
A
Tiritando de un amor tan prieto
  Bm         A             Em
Y dulce como no pensé que habría
G                A
Algo tan dulce como tú
  G
Y esto es sólo una aproximación
D
Sólo una aproximación
Em     A          D
Sólo una aproximación
  G
Y esto es sólo una aproximación
D
Sólo una aproximación
Em      A         D
Sólo una aproximación






Solo:
E-------------------------------------------------------------
A-------------------------------------------------------------
D-7-----745-7545-----7---7----7-------745---7545-----7-7-9-11--
G---7764---7-----764---4--------7764------7------764--4--------
B--------------------------------------------------------------
E--------------------------------------------------------------
 G
Y esto es sólo una aproximación
D
Sólo una aproximación
Em      A         D
Sólo una aproximación
 G
Y esto es sólo una aproximación
D
Sólo una aproximación
Em     A           D
Sólo una aproximación


Estrofa con ahahahah!

tro:
        E---------------------
        B---------------------
        G-/11--/11--9---------
  X2    D-------------12-11---
        A---------------------
        E---------------------

        E--------------------------
        B----------------------12--
        G-/11--/11--9--------------
        D-------------12--11-11h12-
        A--------------------------
        E--------------------------


Esta es una correccion de una anterior que ya habia,
gran parte del trabajo la hizo el transcriptor
Ruego corrijan si hay errores, aunque en el disco la tocan
como si estuviera en DO, pero con cejilla el el traste 2.
saludos
Calificar esta versión:
Aviso: Este fichero es trabajo propio de su transcriptor y representa su interpretación personal de la canción. El material contenido en esta página es para exclusivo uso privado, por lo que se prohibe su reproducción o retransmisión, así como su uso para fines comerciales.
Más versiones de Aproximación, Pereza
Aproximacion
acordes
Aproximación
tablatura
Descubre más canciones de Pereza