Pechito Corazon, Pepe Alva (tablatura)

Autor: Gabriello | 33322 visualizaciones



Arpegiado en Em


E--7-6--7-6--7-6--7-6-----
B-8-7--8-7--8-7--8-7------
G-------------------------
D-------------------------
A-------------------------
E-------------------------

E---------------------------------------
B-12-12-12-10-12/13-12--8-8-8-7-8/10-8--
G--------------------------------------- 
D---------------------------------------
A---------------------------------------
E---------------------------------------

E-------------------------
B-------------------------
G-------0-----------------
D--0-1-2-2-0-2------------
A-2-----------------------
E-------------------------


Em
Sueño contigo en mi tierra como en las 
   C
estrellas que van volando
       G
alto...alto Sabes decir que tonto soy 
sabes decir que tonto soy
C                              G
pero llevo dibujado tu rostro santo
                        B               Em
Y en mi pechito corazón nada se ha acabado
G
en mi pechito corazón/en mi pechito corazón 
B               Em
nada se ha acabado


Em                                     C
Cargo conmigo momentos que nunca se fueron 
                              G
nunca despidieron nuestros recuerdos
como te fuiste corazón como te fuiste de mi amor
C                            G
si en tus besos tenía mi juramento

                        B               Em
Y en mi pechito corazón nada se ha acabado
G
en mi pechito corazón en mi pechito corazón 

B               Em
nada se ha acabado


E--7-6--7-6--7-6--7-6-----
B-8-7--8-7--8-7--8-7------
G-------------------------
D-------------------------
A-------------------------
E-------------------------

Em
Sueño contigo en mi tierra como en las estrellas?
cargo conmigo momentos que nunca se irán?

C - G

G
sabes decir que tonto soy sabes decir que tonto soy
C                             G
pero llevo dibujado tu rostro santo
C                             G
pero llevo dibujado tu rostro santo 

                        B               Em
Y en mi pechito corazón nada se ha acabado
G
en mi pechito corazón/en mi pechito corazón 
B               Em
nada se ha acabado
B               Em
nada se ha acabado 
B             C    B   Em
nada se ha acaba - a - do ?

E--7-6--7-6--7-6--7-6-----
B-8-7--8-7--8-7--8-7------
G-------------------------
D-------------------------
A-------------------------
E-------------------------

E---------------------------------------
B-12-12-12-10-12/13-12--8-8-8-7-8/10-8--
G--------------------------------------- 
D---------------------------------------
A---------------------------------------
E---------------------------------------





Calificar esta versión:
Aviso: Este fichero es trabajo propio de su transcriptor y representa su interpretación personal de la canción. El material contenido en esta página es para exclusivo uso privado, por lo que se prohibe su reproducción o retransmisión, así como su uso para fines comerciales.
Más versiones de Pechito Corazon, Pepe Alva
Pechito Corazon
acordes
Pechito Corazon
tablatura
Descubre más canciones de Pepe Alva