Por Mujeres Como Tú, Pepe Aguilar (tablatura)

Autor: Anónimo | 34542 visualizaciones

INTRO:

D -0---------- 
A -----4---2-- 
E ------------ 
        A7                        G                     D
e -10--- 9--- 9---12--- 9-- - 9---7---7---10---7-- -5---3---2---5--
B -12---10---10---14---10-- -10---8---8---12---8-- -7---5---3---7-- (2)
G ------------------------- ---------------------- ----------------

                       A7                               D       
e -2---3---2---1---2---5---5---3-- -0---2---0-------0---3---3---2--
B -3---5---3---2---3---7---7---5-- -2---3---2---4---2---5---5---3--
G -------------------------------- --------------------------------

                       A7                                               D
e -2---3---2---1---2---5---0---5---3-- -2---0---5---0---5---3---2---0---2--
B -3---5---3---2---3---7-------7---5-- ---------7-------7---5---3---2---3--
G ------------------------------------ ------------------------------------

     D                         A7
Me estoy acobardando y lo he notado
  G                         D  F#m
y eso no es muy bueno para mi 
     Bm                        F#m
si quiero retenerla entre mis brazos 
        G Em          A7        D
será mejor que no me vea sufrir.

                            A7
Estoy estacionado en los fracasos
       G                       D  F#m
y hoy voy a remediar la situación 
  Bm                          F#m
será que siempre he dado demasiado
        G   Em         A7        
en el exceso siempre salgo dañado.

             G         A7
POR MUJERES COMO TU, AMOR
         D           Bm
HAY HOMBRES COMO YO
                 Em           A7
QUE SE PUEDEN MORIR POR DIGNIDAD
              D
MORDIENDO EL CORAZÓN.

             G         A7
POR MUJERES COMO TU, AMOR
         D           Bm
Hay Hombres Como Yo
                  Em           A7
QUE SE PUEDEN PERDER EN EL ALCOHOL
            D
POR UNA DECEPCIÓN.

Requinto (Tab):
      D                       A7         G                    D  F#m
e ----5--3--3--2--2--0--0-----5----- -5--5--3--2--2--0--0-----2---
B -------------------------3-----2-- ----------------------3------
G -2-------------------------------- -----------------------------

      Bm                           A7               G  Em       A7      D
e -9--10--9--10--9--10--9----------9----- -------------------------------
B -------------------------12--10-----7-- -7--8--7--8--7--8--7--8--5--5--
G --------------------------------------- ------------------------------- 

      D                       A7       G                    D  F#m
e -5--5--3--3--2--2--0--0-----5----- --5--3--2--2--0--0-----2---
B -------------------------3-----2-- --------------------3------
G ---------------------------------- ---------------------------

      Bm                           A7               G  Em       A7      D
e -9--10--9--10--9--10--9----------9----- -------------------------------
B -------------------------12--10-----7-- -7--8--7--8--7--8--7--8--5--5--
G --------------------------------------- ------------------------------- 

                           G        A7             D                  Bm    
e -14--14--14--12----------------------- --------------12--------------
B -----------------15--14--15---14--14-- --14--14--15------14--14------
G -------------------------------------- --------------------------14--

                       Em              A7                   D
e -----12--14--12------15------------------ -----------------12----------
B -15--------------15------15--15--15--14-- -14--14--14--15------14------
G ----------------------------------------- -------------------------14--

                           G        A7             D                  Bm    
e -14--14--14--12----------------------- --------------12--------------
B -----------------15--14--15---14--14-- --14--14--15------14--14------
G -------------------------------------- --------------------------14--

                       Em              A7                       D
e -----12--14--12------15------------------ -------------12----------
B -15--------------15------15--15--12--14-- -14--14--15------14--15--
G ----------------------------------------- -------------------------
Calificar esta versión:
Aviso: Este fichero es trabajo propio de su transcriptor y representa su interpretación personal de la canción. El material contenido en esta página es para exclusivo uso privado, por lo que se prohibe su reproducción o retransmisión, así como su uso para fines comerciales.
Más versiones de Por Mujeres Como Tú, Pepe Aguilar
Por Mujeres Como Tu
acordes
Por Mujeres Como Tú (ver 2)
acordes
Por Mujeres Como Tú
tablatura
Descubre más canciones de Pepe Aguilar