Mi Credo, Pepe Aguilar (tablatura)

Autor: carene_100 | 24068 visualizaciones

INTRO

    C                 F                 C                 F
E –-0—-1--3--3—-1--0-------3-1-0-0--1-0-0--1--3--3--1--0-----
B --------------------1-----------------------------------1--
G -----------------------------------------------------------
D -----------------------------------------------------------
A --3-----------------------------------3--------------------
E -----------------------------------------------------------



    C                   F          C                   F       G
E –-0—-1—-1s3--3—-1--0-------------0--1—-1s3--3--1--0-------------
B ----------------------1------1-3---------------------1—-3s5--3--
G ---------------------------2------------------------------------
D ----------------------------------------------------------------
A --3------------------------------3------------------------------
E ----------------------------------------------------------------



VERSO

C                 F
Por donde vayas iré

Dm        G           C
Con una venda en los ojos

Am                D
Lo que decidas haré

F                                G  (silencio)
El amor cuando es verdad es uno solo


E –-5—3-----—----------
B ------5-3---3s5s3----
G ----------4-------4--
D ---------------------
A ---------------------
E ---------------------


C                     F
No me preguntes por qué


Dm          G     C
He sido bueno contigo

     Am                   D
Solo sé que eres mi religión

          F                      G
Que no importa si lo llaman fanatismo



CORO

                     F
Sin ti yo no soy el mismo

          G               Em
Eres mi credo, pedazo de cielo

           Am
Abrázame fuerte

                     F
Mi trébol de buena suerte

            Dm
Prefiero morir junto a ti

      G
A no verte


E –-—---3--—--0-----------
B ----0---0---------------
G --3-------3-0-----------
D ---------------0s2s0----
A ---------------------3--
E ------------------------


    C                   F          C                   F       G
E –-0—-1—-1s3--3—-1--0-------------0--1—-1s3--3--1--0-------------
B ----------------------1------1-3---------------------1—-3s5--3--
G ---------------------------2------------------------------------
D ----------------------------------------------------------------
A --3------------------------------3------------------------------
E ----------------------------------------------------------------


C                     F
No me preguntes por qué


Dm          G     C
He sido bueno contigo

     Am                   D
Solo sé que eres mi religión

          F                      G
Que no importa si lo llaman fanatismo



CORO

                     F
Sin ti yo no soy el mismo

          G               Em
Eres mi credo, pedazo de cielo

           Am
Abrázame fuerte

                     F
Mi trébol de buena suerte

            Dm
Prefiero morir junto a ti

      G
A no verte

                     F
Sin ti yo no soy el mismo

          G               Em
Eres mi credo, pedazo de cielo

           Am
Abrázame fuerte

                     F
Mi trébol de buena suerte

            Dm
Prefiero morir junto a ti

      G
A no verte, no no no nooo…


PUENTE
F – G – Em –Am


                     F
Ay mi trébol de buena suerte

            Dm
Prefiero morir junto a ti

      G
A no verte

RIFF
E –-8—7-—-8-7—--8-7---8-7----
B ------8-----8-----8-----8--
G ---------------------------  X 2
D ---------------------------
A ---------------------------
E ---------------------------



FINAL
    C                 F
E –-0—-1—-1s3--3—-1--0-----
B ---------------------1---
G -------------------------  
D -------------------------   
A --3----------------------
E -------------------------
       A  don--de va-yas iré
Calificar esta versión:
Aviso: Este fichero es trabajo propio de su transcriptor y representa su interpretación personal de la canción. El material contenido en esta página es para exclusivo uso privado, por lo que se prohibe su reproducción o retransmisión, así como su uso para fines comerciales.
Más versiones de Mi Credo, Pepe Aguilar
Mi Credo
acordes
Mi Credo (ver 2)
acordes
Mi Credo
tablatura
Descubre más canciones de Pepe Aguilar