El Autobus, Pepe Aguilar (tablatura)

Autor: Anónimo | 19267 visualizaciones

Acordes:

Am   x02210      C    x32010
F    133211      Dm   xx0231
G    320011      Em   022000
A#   x13331

Guitar 1 (acústica)
Guitar 2 (acústica)
Guitar 3 (eléctrica)
Afinación normal (eadgbe)

Intro: Guitar 2 acompaña a guitar 1 con los acordes mostrados.

       Am          F       G
  Guitar 1
E|------------------------------------0-------------------|
B|-1-3-3h5-5-5-3-1---6-5-3-1/3----3-----3-----------------|
G|-2-4-4/5-5-5-4-2--7--5-4-2/4--4---4-----4---------------|
D|-----------------7-------3/5--------------5-------------|
A|--------------------------------------------------------|
E|--------------------------------------------3-----------|

       Am          F       G
E|------------------------------------0-------------------|
B|-1-3-3h5-5-5-3-1---6-5-3-1/3----3-----3-----------------|
G|-2-4-4/5-5-5-4-2--7--5-4-2/4--4---4-----4---------------|
D|-----------------7-------3/5--------------5-------------|
A|--------------------------------------------------------|
E|--------------------------------------------3-----------|

       Am      F        G          Am      F        G
  Guitar 3(dist)
E|--------------------------|-----------------------------|
B|-1-3-3h5-3-1-5/6--5-3-----|--1-3-3h5-3-1-5/6--5-3-------|
G|-2-4-4/5-4-2-5/7--5-4-2/4-|--2-4-4/5-4-2-5/7--5-4-2/4---|
D|----------------------3/5-|-----------------------3/5---|
A|--------------------------|-----------------------------|
E|--------------------------|-----------------------------|

  F
E|--------------------------------------------------------|
B|--------------------------------------------------------|
G|-4/5-5--x-7----x-x--5-x--7------------------------------|
D|-5/7-7--x-9----x-x--7-x--9------------------------------|
A|--------------------------------------------------------|
E|--------------------------------------------------------|

Verso 1:
C          G    Dm           F            C
  Lo mismo da     donde me lleve el autobús
E|------------------------------------------0-------------|
B|------------------------------------------1-------------|
G|--------------------------------------------------------|
D|--------------------------------------------------------|
A|--------------------------------------------------------|
E|--------------------------------------------------------|

          G       Dm        F              C
Cualquier lugar      será mejor para olvidar.
E|----------------1---------------------------------------|
B|-------------3--3---------------------------------------|
G|-------------4------------------------------------------|
D|--------------------------------------------------------|
A|--------------------------------------------------------|
E|--------------------------------------------------------|

         G   Dm               F         C
funcionará       tal vez de nada servirá
E|0--0-------1---------------------------0----------------|
B|1--1----3--3---------------------------1----------------|
G|--------4-----------------------------------------------|
D|--------------------------------------------------------|
A|--------------------------------------------------------|
E|--------------------------------------------------------|

        G    Dm               F           G
intentaré        borrar tus huellas de mi piel.
E|-----------1--------------------------------------------|
B|--------3--3--------------------------------------------|
G|--------4-----------------------------------------------|
D|--------------------------------------------------------|
A|--------------------------------------------------------|
E|--------------------------------------------------------|

  Guitar 2
E|-7h8p7-5------------------------------------------------|
B|---------8-5--------------------------------------------|
G|-------------7-5-7-7/9-7--------------------------------|
D|-------------------------10-8-10------------------------|
A|--------------------------------------------------------|
E|--------------------------------------------------------|

Am        Em          Am         G        F
   Esta ciudad huele a ti, tristemente a ti.

Coro:
                       C                 Em
Y lo que quiero es olvidarme de tu amor,
    F                                  G
Salvar el corazón, deshojaré el mal recuerdo,
            Dm           F      G
que me ha dejado tu traición.
                       C                 Em
Y lo que quiero es olvidarme de tu amor,
       F                                  G
Aunque tenga que morir, anestesiando el deseo,
             Dm          G    A#
Tal vez no piense más en ti.

   F        C
E|--------------------------------------------------------|
B|--------------------------------------------------------|
G|--------------------------------------------------------|
D|--------------------------------------------------------|
A|--------------------------------------------------------|
E|--------------------------------------------------------|

Verso 2:
C        G           Dm                 F             C
   Caminaré,                sobre las brazas del dolor.
E|--------------------------------------------------------|
B|--------------------------------------------------------|
G|----------9b10r9-7-5h7----------------------------------|
D|-----------------------7--------------------------------|
A|--------------------------------------------------------|
E|--------------------------------------------------------|

       G            Dm                   F            G
Renaceré,                     tal vez será con otra piel.
E|--------------------------------------------------------|
B|-------9b10r9-7-----------------------------------------|
G|----------------9-9b10r9-------------------------7h9p7--|
D|-------------------------10-----------------------------|
A|--------------------------------------------------------|
E|--------------------------------------------------------|

                        Am
E|--------------------------|
B|--------------------------|
G|--------------------------|
D|--7b8r7-5-----------------|
A|--------------7-5---------|
E|------------------8-7-5---|

          Em          Am         G        F
   Esta ciudad huele a ti, tristemente a ti.

Coro:
Y lo que quiero es olvidarme de tu amor,
Salvar el corazón, deshojare el mal recuerdo
Que me ha dejado tu traición.
Y lo que quiero es olvidarme de tu amor,
Aunque tenga que morir, anestesiando el deseo
Tal vez no piense más en ti.

Solo:

E|--------------------------------------------------------|
B|--------------------------------------------------------|
G|--10b11r10-9--10-9---9--11-11b12-11-9--10-9-------------|
D|--12b13r13-10-12-10--10-12-12b13-12-10-12-10-10---------|
A|---------------------------------------------12---------|
E|--------------------------------------------------------|


E|------------------------------------------7-------------|
B|-------------------------------------8b9--8-8b9--5-6----|
G|------------7------------------------9b10---9b10-5-7----|
D|--7p5-7-7b8---(8)r7-5--7-7-5---5-7-5--------------------|
A|-----------------------------7--------------------------|
E|--------------------------------------------------------|


E|--------------------------------------------------------|
B|--------------------------------------------------------|
G|--------------------------------------------------------|
D|--------------------------------------------------------|
A|--------------------------------------------------------|
E|--------------------------------------------------------|

Y lo que quiero es olvidarme de tu amor,
Aunque tenga que morir, anestesiando el deseo
Tal vez no piense más en ti.

E|--------------------------------------------------------|
B|--------------------------------------------------------|
G|--------------------------------------------------------|
D|--------------------------------------------------------|
A|--------------------------------------------------------|
E|--------------------------------------------------------|



Nota: Me faltan algunos arreglos, esos los agregare despues.
Calificar esta versión:
Aviso: Este fichero es trabajo propio de su transcriptor y representa su interpretación personal de la canción. El material contenido en esta página es para exclusivo uso privado, por lo que se prohibe su reproducción o retransmisión, así como su uso para fines comerciales.
Más versiones de El Autobus, Pepe Aguilar
El Autobus
acordes
El Autobus (ver 2)
acordes
El Autobus
tablatura
Descubre más canciones de Pepe Aguilar