Las Mañanitas, Pedro Infante (tablatura) (ver 2)

Autor: thedraxmox | 40197 visualizaciones



e------------------------------------------------------------
b--------------------------------------------5-----------5--6-
g---------5-----5----4---5---7---4---5---7-------4--5-7-------
d-7---7-------------------------------------------------------
a------------------------------------------------------------
e------------------------------------------------------------


e-----------------------------------------------------------
b--6--6--5-------------------------------------5---6---------
g-----------7---5---4----7----5----4----5---7---------7---5--
d-----------------------------------------------------------
a-----------------------------------------------------------
e-----------------------------------------------------------

e-----------------------------------------------------------
b-5----------------------5-------5---------------------5-----
g----7---4-4----5---7--------5-------7----4--4--5--7---------
d-----------------------------------------------------------
a-----------------------------------------------------------
e-----------------------------------------------------------


e-----------------------------------------------------------
b------------6--6---6---6--5-----------------5----6------------
g---5---5---------------------5----4--5---7-------------7----5--
d-------------------------------------------------------------
a-----------------------------------------------------------
e-----------------------------------------------------------





Calificar esta versión:
Aviso: Este fichero es trabajo propio de su transcriptor y representa su interpretación personal de la canción. El material contenido en esta página es para exclusivo uso privado, por lo que se prohibe su reproducción o retransmisión, así como su uso para fines comerciales.
Más versiones de Las Mañanitas, Pedro Infante
Las MaÑanitas
acordes
Las Mañanitas (ver 2)
acordes
Las Mañanitas
tablatura
Las Mañanitas (ver 2)
tablatura
Las Mañanitas
teclado
Descubre más canciones de Pedro Infante