Historia De Un Amor, Pedro Infante (tablatura)

Autor: Anónimo | 28559 visualizaciones



ESTE ES EL REQUINTO LA CANCIÓN COMO LA CANTA PEDRO INFENTE  NO ES COMO EL DE LOS PANCHOS 


   E|-------------------------------------------------------
   A|-------------------------------------------------------
   D|--------------------------------------------------9-7-5
   G|-----9-----9---------------9-8-----8-----8------9------
   B|-8-7---7-8---8/10-10-8-7-7-----7-5---5-7--8-8-7--------
   e|-------------------------------------------------------


LA PARTE DE LOS VIOLINES

   E|-------------------------------------------------------
   A|-------------------------------------------------------
   D|-------------------------------------------------------
   G|-5-----------------3------------------2-----------5----
   B|---3-4-4-4-3-4/6-3---1-2-2-2-1-2/4-0----0-1^0-4-3------
   e|-------------------------------------------------------



Em

                     Am           B7
Ya no estás más a mi lado corazón 
                 Em
en el alma sólo tengo soledad
                  D  
y si ya no puedo verte
                         C
porque Dios lo hizo quererte
                 B7       Em 
para hacerme sufrir más.


                     Am               B7 
Siempre fuiste la razón de mi existir
               Em
adorarte para mí fue religión
                      D
en tus besos yo encontraba
                     C
el calor que me brindaba
     B7          Em
el amor de tu pasión.


                       Am
Es la historia de un amor
                   B7
como no hay otro igual
                   Em
que me hizo comprender

todo el bien todo el mal
                     D
que le dio luz a mi vida
                C   
apagándola después
                      B7 
ay..que noche tan obscura

B|-----5-3-2-------
e|-3-2-------------


C                     B7 
 todo se me ha de volver.

E|------------7-5--------
A|---10-8-7-5-----9~ ----
 
Em

                     Am           B7
Ya no estás más a mi lado corazón 
                 Em
en el alma sólo tengo soledad
                  D  
y si ya no puedo verte
                         C
porque Dios lo hizo quererte
                 B7                Em 
para hacerme sufrir más.
  

   E|-------------------------------------------------------
   A|-------------------------------------------------------
   D|--------------------------------------------------9-7-5
   G|-----9-----9---------------9-8-----8-----8------9------
   B|-8-7---7-8---8/10-10-8-7-7-----7-5---5-7--8-8-7--------
   e|-------------------------------------------------------


   E|-------------------------------------------------------
   A|-------------------------------------------------------
   D|-------------------------------------------------------
   G|-5-----------------3------------------2-----------5----
   B|---3-4-4-4-3-4/6-3---1-2-2-2-1-2/4-0----0-1^0-4-3------
   e|-------------------------------------------------------

                    Am
Es la historia de un amor
                   B7
como no hay otro igual
                   Em
que me hizo comprender

todo el bien todo el mal
                     D
que le dio luz a mi vida
                C   
apagándola después
                      B7 
ay..que noche tan obscura

B|-----5-3-2-------
e|-3-2-------------


C                     B7 
 todo se me ha de volver.

E|------------7-5--------
A|---10-8-7-5-----9~ ----
 
Em

                     Am           B7
Ya no estás más a mi lado corazón 
                 Em
en el alma sólo tengo soledad
                  D  
y si ya no puedo verte
                         C
porque Dios lo hizo quererte
                 B7                Em 
para hacerme sufrir más.
  

el correo que aparece no esta bien ahora es [email protected] para
cualquier comentario





Calificar esta versión:
Aviso: Este fichero es trabajo propio de su transcriptor y representa su interpretación personal de la canción. El material contenido en esta página es para exclusivo uso privado, por lo que se prohibe su reproducción o retransmisión, así como su uso para fines comerciales.
Más versiones de Historia De Un Amor, Pedro Infante
Historia De Un Amor
acordes
Historia De Un Amor
tablatura
Descubre más canciones de Pedro Infante